Song name
# A B C D E F G H I J K L M N O P Q R S T U V W X Y Z

Slipknot - Confessions tab

This isn't ALL precise, but I think it's the best tab that you'll find.

Bass intro first

Guitar kicks in:
|---------------------------------------------------|
|---------------------------------------------------|
|-----------10-9-------9----------------------------|
|-----------------------------------------10-9------|
|-----12-----------10----------------10-------------|
|-10-------------8---------------8-8----------------|

|---------------------------------------------------|
|---------------------------------------------------|
|---10----------------------------------------------|
|---X-----------------------------------------------|
|---8-----------------------------------------------|
|---------------------------------------------------|

Bass part

Guitar kicks in again:
|---------------------------------------------|
|--------------------------16-16-16-16--------|
|--------------------------15-15-15-15--------|
|-12-12----13-13----12-12--13-13-13-13--------|
|-12-12----13-13----12-12---------------------|
|-10-10-XX-11-11-XX-10-10---------------------|

|---------------------------------------------|
|--------------------------16-16-16-15--------|
|--------------------------15-15-15-14--------|
|-12-12----13-13----12-12--13-13-13-12--------|
|-12-12----13-13----12-12---------------------|
|-10-10-XX-11-11-XX-10-10---------------------|

Second guitar part:
|--------------------------------------------|
|--------------------------------------------|
|--------------------------------------------|
|--------------------------------------------|
|-12-12-12-13-13-13-12-12-12-13-13-13--------|
|-10-10-10-11-11-11-10-10-10-11-11-11--------|

Chorus:
|-------------------------------------------------------|
|-------------------------------------------------------|
|-------7-7---------------------------------------------|
|-8-8-8-7-7--3--3------5--------------------------------|
|-8-8-8-5-5--3--3------5--------------------------------|
|-6-6-6------1--1------3-something, something-----------|

And that's the part that I know.
Tap to rate this tab
 
# A B C D E F G H I J K L M N O P Q R S T U V W X Y Z