Song name
# A B C D E F G H I J K L M N O P Q R S T U V W X Y Z

Slipknot - Psychosocial tab

Psychosocial tab by Slipknot

Tabbed by thiscomposer
(Mail me at thiscomposer@mail.ru)

Tuning : C#G#EBF#B

Tablature legend
=================
^,v-bend up\down
*-palm mute
\,/-slides
h-hammer on
]-pause



Intro X2

|------------------------------------------------------------------------|
|------------7^--------------------------7^-------------------7^---------|
|------------------------------------------------------------------------|
|------------------------------------------------------------------------|
|-----------------3h5-------------------------3h5------------------3h5---|
|-0-0-3-0-0-----0-3h5-0-0-0-0-0-0-0-0-0-----0-3h5--0-0-3-0-0-----0-3h5-0-|
  * * * * *     *     * * * * * * * * *     *      * * * * *     *     *

|---------------------------------|
|---------------------------------|
|---------------------------------|
|---------------------------------|
|---------------------------------|
|-5-5-5-5-6-6-6-6-8-8-8-8-7-7-7-7-|
  * * * * * * * * * * * * * * * *



Break 1 X4(last time - slowly release palm mute)

|---------------------------------|
|---------------------------------|
|---------------------------------|
|---------------------------------|
|---------------------------------|
|-5-5-5-5-6-6-6-6-8-8-8-8-7-7-7-7-|
  * * * * * * * * * * * * * * * *



Verse X2

	X3         /		X1
|-----------------|-----------------|
|-----------------|-----------------|
|-----------------|-----------------|
|-----------------|-----------------|
|-6-0-0-5-0-0-5/6-|-6-5-3-1-3-5-3-2-|
|-6-0-0-5-0-0-5/6-|-6-5-3-1-3-5-3-2-|
    * *   * *       * * * * * * * *



Some verse part X1

	X1     /	      X2	       /	      X1
|--------------|-----------------|-----------------|
|--------------|-----------------|-----------------|
|--------------|-----------------|-----------------|
|--------------|-----------------|-----------------|
|--6h5-0-0-5/6-|-6-0-0-5-0-0-5/6-|-6-5-3-0-3-5-3-2-|
|--6h5-0-0-5/6-|-6-0-0-5-0-0-5/6-|-6-5-3-0-3-5-3-2-|
       * *         * *   * *       * * * * * * * *



Verse X3

	X3         /		X1
|-----------------|-----------------|
|-----------------|-----------------|
|-----------------|-----------------|
|-----------------|-----------------|
|-6-0-0-5-0-0-5/6-|-6-5-3-1-3-5-3-2-|
|-6-0-0-5-0-0-5/6-|-6-5-3-1-3-5-3-2-|
    * *   * *       * * * * * * * *



 Chorus X1

|--------------------------------------------------------------|
|--------------------------------------------------------------|
|--------------------------------------------------------------|
|-------------------------3-3-3--------------------5-5-5--8-8-8|
|-6-6-6-6-6-6-6---1-1-1---1-1-1---5--5-5-5-5-5-5-5-3-3-3--6-6-6|
|-6-6-6-6-6-6-6-0-1-1-1-0-------0-5--5-5-5-5-5-5-5-------------|
                                     * * * * * * *

|----------------------------------------------------]-------|
|----------------------------------------------------]-------|
|----------------------------------------------------]-------|
|-------------------------3-3-3----------------------]-------|
|-6-6-6-6-6-6-6---1-1-1---1-1-1---5--5-5-5-5-5-5-5-0-]-0-----|
|-6-6-6-6-6-6-6-0-1-1-1-0-------0-5--5-5-5-5-5-5-5-0-]-0-13\-|
                                     * * * * * * *     *



Verse X2

	X3         /		X1
|-----------------|-----------------|
|-----------------|-----------------|
|-----------------|-----------------|
|-----------------|-----------------|
|-6-0-0-5-0-0-5/6-|-6-5-3-1-3-5-3-2-|
|-6-0-0-5-0-0-5/6-|-6-5-3-1-3-5-3-2-|
    * *   * *       * * * * * * * *



Some verse part X1

	X1     /	      X2	       /	      X1
|--------------|-----------------|-----------------|
|--------------|-----------------|-----------------|
|--------------|-----------------|-----------------|
|--------------|-----------------|-----------------|
|--6h5-0-0-5/6-|-6-0-0-5-0-0-5/6-|-6-5-3-0-3-5-3-2-|
|--6h5-0-0-5/6-|-6-0-0-5-0-0-5/6-|-6-5-3-0-3-5-3-2-|
       * *         * *   * *       * * * * * * * *



Verse X3

	X3         /		X1
|-----------------|-----------------|
|-----------------|-----------------|
|-----------------|-----------------|
|-----------------|-----------------|
|-6-0-0-5-0-0-5/6-|-6-5-3-1-3-5-3-2-|
|-6-0-0-5-0-0-5/6-|-6-5-3-1-3-5-3-2-|
    * *   * *       * * * * * * * *



 Chorus X1

|--------------------------------------------------------------|
|--------------------------------------------------------------|
|--------------------------------------------------------------|
|-------------------------3-3-3--------------------5-5-5--8-8-8|
|-6-6-6-6-6-6-6---1-1-1---1-1-1---5--5-5-5-5-5-5-5-3-3-3--6-6-6|
|-6-6-6-6-6-6-6-0-1-1-1-0-------0-5--5-5-5-5-5-5-5-------------|
                                     * * * * * * *

|----------------------------------------------------]-------|
|----------------------------------------------------]-------|
|----------------------------------------------------]-------|
|-------------------------3-3-3----------------------]-------|
|-6-6-6-6-6-6-6---1-1-1---1-1-1---5--5-5-5-5-5-5-5-0-]-0-----|
|-6-6-6-6-6-6-6-0-1-1-1-0-------0-5--5-5-5-5-5-5-5-0-]-0-13\-|
                                     * * * * * * *     *


 

Sorry , I cannot work out the solo , here is undersolo part :


1st part X2

	X3         /		X1
|-----------------|-----------------|
|-----------------|-----------------|
|-----------------|-----------------|
|-----------------|-----------------|
|-6-0-0-5-0-0-5/6-|-6-5-3-1-3-5-3-2-|
|-6-0-0-5-0-0-5/6-|-6-5-3-1-3-5-3-2-|
    * *   * *       * * * * * * * *



2nd part

|--------------------------------------------------------------|
|--------------------------------------------------------------|
|--------------------------------------------------------------|
|-------------------------3-3-3--------------------5-5-5--8-8-8|
|-6-6-6-6-6-6-6---1-1-1---1-1-1---5--5-5-5-5-5-5-5-3-3-3--6-6-6|
|-6-6-6-6-6-6-6-0-1-1-1-0-------0-5--5-5-5-5-5-5-5-------------|
  * * * * * * *                      * * * * * * *

|----------------------------------------------------------|
|----------------------------------------------------------|
|----------------------------------------------------------|
|-------------------------3-3-3----------------------------|
|-6-6-6-6-6-6-6---1-1-1---1-1-1---5--5-5-5-5-5-5-5-5-5-5-5-|
|-6-6-6-6-6-6-6-0-1-1-1-0-------0-5--5-5-5-5-5-5-5-5-5-5-5-|
  * * * * * * *                      * * * * * * * * * * *




Interlude X3(palm muted)

|------------------------------------|
|------------------------------------|
|------------------------------------|
|------------------------------------|
|------------------------------------|
|-0-0---0-0--0-0--0-0-0-0--0-0-0-0-0-|



Interlude riff 1
|------------------------------------|
|------------------------------------|
|------------------------------------|
|------------------------------------|
|------------------------------------|
|-0-0---0-0--0-0--0-0-0-0--0-0-/15\\-|
  * *   * *  * *  * * * *  * *



Interlude X4(palm muted)

|------------------------------------|
|------------------------------------|
|------------------------------------|
|------------------------------------|
|------------------------------------|
|-0-0---0-0--0-0--0-0-0-0--0-0-0-0-0-|




Post-interlude X1

		X3		   /		X1
|--------------------------------------|---------------------------]-------|
|--------------------------------------|---------------------------]-------|
|--------------------------------------|---------------------------]-------|
|--------------------------------------|---------------------------]-------|
|-----6-\--------------------------3/5-|-----6-\-------------------]-0-5-0-|
|-0-0-6-\-0-0--0-0--0-0-0-0--0-0-0-3/5-|-0-0-6-\-0-0--0-0--0-0-0-0-]-0-5-0-|
  * *     * *  * *  * * * *  * * *       * *     * *  * *  * * * *   *   *



Verse X3

	X3         /		X1
|-----------------|-----------------|
|-----------------|-----------------|
|-----------------|-----------------|
|-----------------|-----------------|
|-6-0-0-5-0-0-5/6-|-6-5-3-1-3-5-3-2-|
|-6-0-0-5-0-0-5/6-|-6-5-3-1-3-5-3-2-|
    * *   * *       * * * * * * * *



Final chorus X1(X3 1st part and X1 2nd)

|--------------------------------------------------------------|
|--------------------------------------------------------------|
|--------------------------------------------------------------|
|-------------------------3-3-3--------------------5-5-5--8-8-8|
|-6-6-6-6-6-6-6---1-1-1---1-1-1---5--5-5-5-5-5-5-5-3-3-3--6-6-6|
|-6-6-6-6-6-6-6-0-1-1-1-0-------0-5--5-5-5-5-5-5-5-------------|


|----------------------------------------------------------------|
|----------------------------------------------------------------|
|----------------------------------------------------------------|
|-------------------------3-3-3----------------------------------|
|-6-6-6-6-6-6-6---1-1-1---1-1-1---5--5-5-5-5-5-5-5-5-5-5-5-5-13\-|
|-6-6-6-6-6-6-6-0-1-1-1-0-------0-5--5-5-5-5-5-5-5-5-5-5-5-5-13\-|
                                     * * * * * * * * * * * *



Bridge X4

|------------------------------------------------------------------------|
|-------------------------------------------------------------------12^^-|
|------------------------------------------------------------------------|
|------------------------------------------------------------------------|
|------------------------------------------------------------------------|
|-12-12-15-15-12-12-12-12-13-13-12-12-15-15-12-12-12-12-12-12-12-12------|
  *  *  *  *  *  *  *  *  *  *  *  *  *  *  *  *  *  *  *  *  *  *



Outro X4(last time 3-\1 changes to palm muted 0-0-0-0)

|------------------------------------------|
|------------------------------------------|
|------------------------------------------|
|------------------------------------------|
|-0-0--0-0---0-0--0-0--0-0-0-0--0-0-0-3-\1-|
|-0-0--0-0---0-0--0-0--0-0-0-0--0-0-0-3-\1-|
  * *  * *   * *  * *  * * * *  * * *
Tap to rate this tab
 
# A B C D E F G H I J K L M N O P Q R S T U V W X Y Z