Slipknot - Three Nil tab

Three nil tab by Slipknot

Tabbed by thiscomposer
(Mail me at thiscomposer@mail.ru)

Tuning BF#BEG#C#

Tablature legend
=================
tr-tremolo picking
/\-slide up,down
h-hammer on
p-pull off
*-palm mute
<>-harmonics



Intro part 1 X8

|----------------------|
|----------------------|
|----------------------|
|-1/7------------------|
|-1/7-0-3-2---5555/66\-|
|-1/7-0-3-2------------|
      * * *



Intro part 2 X8

|----------------------|
|----------------------|
|----------------------|
|-1/7---------5555/66\-|
|-1/7-0-3-2------------|
|-1/7-0-3-2------------|
      * * *



Break 1 X8

|---------------------------------|
|---------------------------------|
|---------------------------------|
|---------------------------------|
|---4p3---1p0---4p3---1p0-----1p0-|
|-0-4p3-0-1p0-0-4p3-0-1p0-0-0-1p0-|
  *     *     *     *     * *



Pre-verse X2(1st time 1 gtr , 2nd time both guitars)

|---------------------------------|
|---------------------------------|
|---------------------------------|
|---------------------------------|
|-------------------------0-------|
|-0-4p3-0-1p0-0-3h5p3-0-4---4-0-3-|



Verse 1 X8

|---------------------------------|
|---------------------------------|
|---------------------------------|
|---------------------------------|
|---4p3---1p0-------------0-------|
|-0-4p3-0-1p0-0-3-6-3-0-4---4-0-3-|
  *     *     * * * * * * * * * *



Post-verse part 1 X1

|--------------------------------------------------|
|--------------------------------------------------|
|--------------------------------------------------|
|--------------------------------------------------|
|---4p3\1p0----0h1-0-0h1-0-4p3-1p0-0h1-0--0--0-4p3-|
|-0-4p3\1p0----0h1-0-0h1-0-4p3-1p0-0h1-0--0--0-4p3-|
  *


Post-verse part 2 X1

|-----------------------------------------------|
|-----------------------------------------------|
|-----------------------------------------------|
|-----------------------------------------------|
|---4p3---1p0---4p3---1p0-----1p0---4p3---1p0-0-|
|-0-4p3-0-1p0-0-4p3-0-1p0-0-0-1p0-0-4p3-0-1p0-0-|
  *     *     *     *     **     *     *     *



Pre-chorus(each part X2)

|-----------------------------|
|-----------------------------|
|-----------------------------|
|-----------------------------|
|----2tr/3tr-------5tr/7tr----|
|-2tr-------3tr/5tr-------7tr-|


|-------------------------------|
|-------------------------------|
|-------------------------------|
|-------------------------------|
|----5tr/6tr-------8tr/10tr-----|
|-5tr-------6tr/8tr--------10tr-|


|-----------------|
|-----------------|
|-----------------|
|---4-5-----7-9---|
|-2-2-3-3-5-5-7-7-|
|-2-----3-5-----7-|
   (all palm muted)


|--------------------|
|--------------------|
|--------------------|
|---7-8-----10-12----|
|-5-5-6-6-8--8-10-10-|
|-5-----6-8-------10-|
     (all palm muted)



Break 1 X3

|---------------------------------|
|---------------------------------|
|---------------------------------|
|---------------------------------|
|---4p3---1p0---4p3---1p0-----1p0-|
|-0-4p3-0-1p0-0-4p3-0-1p0-0-0-1p0-|
  *     *     *     *     * *



Postbreak riff X1

|---------------------------|
|---------------------------|
|---------------------------|
|---------------------------|
|-0-0--0-0--0-1-2-5--3-6/7-|
|-0-0--0-0--0-1-2-5--3-6/7-|
  * *  * *  * * *    *



Verse 2 X7

|-------------------------------|
|-------------------------------|
|-------------------------------|
|-------------------------------|
|-0-4-3--1p0-0-4-3--1p0-----1p0-|
|-0-4-3--1p0-0-4-3--1p0-0-0-1p0-|
  * * *      * * *      * *


Verse 2 ending X1

|-------|
|-------|
|-------|
|-------|
|-0-4-3-|
|-0-4-3-|
  * * *



Pre-chorus(each part X2)

|-----------------------------|
|-----------------------------|
|-----------------------------|
|-----------------------------|
|----2tr/3tr-------5tr/7tr----|
|-2tr-------3tr/5tr-------7tr-|


|-------------------------------|
|-------------------------------|
|-------------------------------|
|-------------------------------|
|----5tr/6tr-------8tr/10tr-----|
|-5tr-------6tr/8tr--------10tr-|


|-----------------|
|-----------------|
|-----------------|
|---4-5-----7-9---|
|-2-2-3-3-5-5-7-7-|
|-2-----3-5-----7-|
   (all palm muted)


|--------------------|
|--------------------|
|--------------------|
|---7-8-----10-12----|
|-5-5-6-6-8--8-10-10-|
|-5-----6-8-------10-|
     (all palm muted)



Chorus X4

|----------------------------------------------|
|----------------------------------------------|
|----------------------------------------------|
|----------------------------------------------|
|----------------------------------------<2//>-|
|-12-0-00tr-1212-0-00tr-2-3-33tr/5/6-66tr------|



Gtr 2 on 2nd and 3rd time

|-------------------------------------------------------------|
|-------------------------------------------------------------|
|-------------------------------------------------------------|
|-------------------------------------------------------------|
|----------3/55-5\3----------3/55-5\3-------------------<2//>-|
|-12-0-000---------1212-0-000---------2-3-33tr/5/6-66tr-------|



Break 1st part X4

Gtr1

|-------|
|-------|
|-------|
|-1/7---|
|-1/7-0-|
|-1/7-0-|
      *

Gtr 2

|--------------------|
|--------------------|
|--------------------|
|-1/7----------------|
|-1/7-0-3-2-5555/66\-|
|-1/7-0-3-2----------|
      * * *


Break 2nd part X4

|--------------------|
|--------------------|
|--------------------|
|-1/7----------------|
|-1/7-0-3-2-5555/66\-|
|-1/7-0-3-2----------|
      * * *


Interlude 1st part X8

|----------------------------------|
|----------------------------------|
|----------------------------------|
|-------3---5---6------------------|
|-1-4-3-3-0-5-0-6------------------|
|-1-4-3-3-0-5-0-6------------------|
  * * *   *   *



Interlude 2nd part X4
 
|-------------------|
|-------------------|
|-------------------|
|-1/4-0-3-0---------|
|-1/4-0-3-0-0-5-3-6-|
|-1/4-0-3-0-0-5-3-6-|
            * * * *


Interlude 3rd part X4

|-----------------------|
|-----------------------|
|-----------------------|
|-1/4-0-3-0-7-7-7/8\5-5-|
|-1/4-0-3-0-5-5-5/6\3-3-|
|-1/4-0-3-0-------------|


Chorus X4

|----------------------------------------------|
|----------------------------------------------|
|----------------------------------------------|
|----------------------------------------------|
|----------------------------------------<2//>-|
|-12-0-00tr-1212-0-00tr-2-3-33tr/5/6-66tr------|



Gtr 2 on 2nd and 3rd time

|-------------------------------------------------------------|
|-------------------------------------------------------------|
|-------------------------------------------------------------|
|-------------------------------------------------------------|
|----------3/55-5\3----------3/55-5\3-------------------<2//>-|
|-12-0-000---------1212-0-000---------2-3-33tr/5/6-66tr-------|



Bridge X4(both parts)

1st part

|-----------------------------|
|-----------------------------|
|-----------------------------|
|-----------------------------|
|----2tr/3tr-------5tr/7tr----|
|-2tr-------3tr/5tr-------7tr-|


2nd part

Gtr 1

|---------------------------------|
|---------------------------------|
|---------------------------------|
|----7tr/9tr--------10tr/12tr-----|
|-7tr-------9tr/10tr---------12tr-|
|---------------------------------|

Gtr 2

|-------------------------------|
|-------------------------------|
|-------------------------------|
|-------------------------------|
|----5tr/6tr-------8tr/10tr-----|
|-5tr-------6tr/8tr--------10tr-|



Outro X3(last part X1)

|----------------------|
|----------------------|
|----------------------|
|-1/5------------------|
|-1/5-0--3--1--4--3--6-|
|-1/5-0--3--1--4--3--6-|
      *  *  *  *  *  *

|-----------------------|
|-----------------------|
|-----------------------|
|-1/5-------------------|
|-1/5-0--3--1--4--6-5-3-|
|-1/5-0--3--1--4--6-5-3-|
      *  *  *  *  * * *


|-------------------|
|-------------------|
|-------------------|
|-1/5---------------|
|-1/5-0--3--1--4--3-|
|-1/5-0--3--1--4--3-|
      *  *  *  *  *
Tap to rate this tab
 
# A B C D E F G H I J K L M N O P Q R S T U V W X Y Z