Song name
# A B C D E F G H I J K L M N O P Q R S T U V W X Y Z

Slipknot - Spit It Out tab

Slipknot

Spit It Out


Intro (low or no gain)
C#|---------------|
G#|---------------|
E |---------------|
B |---------------|
F#|---------------|
B |-1-0-5b-0-0-5b-|
Pm  - -    - -
  
C#|-------------------|
G#|-------------------|
E |-------------------|
B |-------------------|
F#|-------------------|
B |-1-0-1-0-5b-0-0-5b-| x4
Pm  - - - -    - -

C#|--------------|
G#|--------------|
E |--------------|
B |--------------|
F#|--------------|
B |-1-0-1-0-5b-0-| x1
Pm  - - - -    

Verse (high gain)
C#|---------------|
G#|---------------|
E |---------------|
B |---------------|
F#|-1-0-5b-0-0-5b-|
B |-1-0-5b-0-0-5b-|
Pm  - -    - -
  
C#|-------------------|
G#|-------------------|
E |-------------------|
B |-------------------|
F#|-1-0-1-0-5b-0-0-5b-|
B |-1-0-1-0-5b-0-0-5b-| x11
Pm  - - - -    - -

C#|-----|
G#|-----|
E |-----|
B |-----|
F#|-1-0-|
B |-1-0-| x1
Pm  - -   

Chorus
C#|---------------|
G#|---------------|
E |---------------|
B |-3-3-2-3-1-1-1-|
F#|-3-3-2-3-1-1-1-|
B |-3-3-2-3-1-1-1-| x8

C#|----------|
G#|----------|
E |----------|
B |----------|
F#|---6---7~-|
B |-5---5----| x10

Verse 
C#|---------------|
G#|---------------|
E |---------------|
B |---------------|
F#|-1-0-5b-0-0-5b-|
B |-1-0-5b-0-0-5b-|
Pm  - -    - -
  


C#|-------------------|
G#|-------------------|
E |-------------------|
B |-------------------|
F#|-1-0-1-0-5b-0-0-5b-|
B |-1-0-1-0-5b-0-0-5b-| x7
Pm  - - - -    - -

C#|-----|
G#|-----|
E |-----|
B |-----|
F#|-1-0-|
B |-1-0-| x1
Pm  - -   

Chorus
C#|---------------|
G#|---------------|
E |---------------|
B |-3-3-2-3-1-1-1-|
F#|-3-3-2-3-1-1-1-|
B |-3-3-2-3-1-1-1-| x8

Pause

Bridge

   Guitar 1
C#|------------------------------------------------|
G#|------------------------------------------------|
E |------------------------------------------------|
B |------------------------------------------------|
F#|-5-6--5-6--5-5-6--5-6--5-5-6--5-6--5-5-6--5-6-5-|
B |------------------------------------------------|
  |Guitar 2                                        |
C#|------------------------------------------------|
G#|------------------------------------------------|
E |------------------------------------------------|
B |------------------------------------------------|
F#|-0-----------00----------00----------00---------|
B |-0-----------00----------00----------00---------|

   Guitar 1
C#|-------------------------------------------------------------------|
G#|-------------------------------------------------------------------|
E |-------------------------------------------------------------------|
B |-------------------------------------------------------------------|
F#|-12-13--12-13--12-12-13--12-13-12--17-18--17-18--17-18btr----------|
B |-------------------------------------------------------------------|
  |Guitar 2
C#|-------------------------------------------------------------------|
G#|-------------------------------------------------------------------|
E |-------------------------------------------------------------------|
B |-------------------------------------------------------------------|
F#|-0--1--0--1--0--0--0---0--1--0--1--0--0--0---0--1--0--1--0--0--0---|
B |-0--1--0--1--0--0--0---0--1--0--1--0--0--0---0--1--0--1--0--0--0---|

C#|---------------|
G#|---------------|
E |---------------|
B |-0-1-0-1-0-0-0-|
F#|-0-1-0-1-0-0-0-|
B |-0-1-0-1-0-0-0-| x8

Chorus
C#|---------------|
G#|---------------|
E |---------------|
B |-3-3-2-3-1-1-1-|
F#|-3-3-2-3-1-1-1-|
B |-3-3-2-3-1-1-1-| x8



Outro
C#|---------------|
G#|---------------|
E |---------------|
B |-3-3-2-3-1-1-1-|
F#|-3-3-2-3-1-1-1-|
B |-3-3-2-3-1-1-1-| x8
Pm  - - - - - - -
Tap to rate this tab
# A B C D E F G H I J K L M N O P Q R S T U V W X Y Z