Song name
# A B C D E F G H I J K L M N O P Q R S T U V W X Y Z

Slipknot - Gematria tab

Gematria(The killing name) tab by Slipknot
Tabbed by thiscomposer
Email(thiscomposer@mail.ru)

Tuning:BF#BEG#C#

Tablature legend
=======================
*-palm mute
^v-bends
/\-slides
h-hammer on
p-pull-off
<>-artificial harmonic
+-natural harmonic
x-dead note
=======================


Intro:

Part 1
Gtr 1
|-------------------------------------------|
|-------------------------------------------|
|-------------------------------------------|
|-----4---3---------------------------------|
|-----2---1-----2---3-----7h8p7-6h7p6-5h6p5-|
|-0-0---0---0-0-2-0-3-0-0-------------------|
  * *   *   * *   *   * *
Gtr 2
|-------------------------------------------|
|-------------------------------------------|
|-------------------------------------------|
|-------------------------2h3p2-1h2p1-0h1p0-|
|-------------------------------------------|
|-0-0---------------------------------------|
  * *
Part 2
Gtr 1
|----------------------------------------------|
|----------------------------------------------|
|----------------------------------------------|
|-4---3-----------------------------------4----|
|-2---1-----2---3-------------------------2--5-|
|---0---0-0-2-0-3-0-0-7p6h7-0-0-6h7p6-0-0----5-|
    *   * *   *   * *       * *       * *
Gtr 2
|-----------------------------------------------------|
|-----------------------------------------------------|
|-----------------------------------------------------|
|-----------------------------------------------------|
|---------------------5h6p5-----4h5p4-----3h4p3-------|
|---------------------------0-0-------0-0-------4p3h4-|
                            * *       * *
Part 3
Gtr 1
|---------------------------------------------------| 
|---------------------------------------------------|
|---------------------------------------------------|
|-----5-----4-------------3/4-----------------------|
|-----6-----5-----2/3-----1/2-----7h8p7-------6h7p6-|
|-0-0---0-0---0-0-2/3-0-0-----0-0-------6h7p6-------|
  * *   * *   * *     * *     * *
Gtr 2
|--------------------------------------------------|
|--------------------------------------------------|
|--------------------------------------------------|
|--------------------------------------------------|
|---------------------------------7-----------6----|
|---------------------------------------6----------|


Then play all 3 parts two times, but both guitars plays 1st guitar part


Part 4(X4)
Both guitars
|-------------------------------------| 
|-------------------------------------|
|-------------------------------------|
|-----4---3---------------------------|
|-----2---1-----2---3-----------------|
|-0-0---0---0-0-2-0-3-0-0-5-8-5h8p5h8-|
  * *   *   * *   *   * * * *
Part 5(X4)
Both guitars
|-------------------------------| 
|-------------------------------|
|-------------------------------|
|-----4--3----------------------|
|-----2--1---2--3---------------|
|-0-0------0-2--3-0-5-8-5h8p5h8-|
  * *      *      * * *
Part 6(X3)
Both guitars
|-----------------------------|
|-----------------------------|
|-----------------------------|
|-----5-----4-------------3/4-|
|-----6-----5-----2/3-----1/2-|
|-0-0---0-0---0-0-2/3-0-0-----|
  * *   * *   * *     * *
Final intro part
Both guitars
|-----------------------|
|-----------------------|
|-----------------------|
|-----5-----4-----------|
|-----6-----5-----2/3-0-|
|-0-0---0-0---0-0-2/3-0-|
  * *   * *   * *

Breakdown riff(X4(first 2 times plays only guitar 1))
|-----------------------------------------| 
|-----------------------------------------|
|-----------------------------------------|
|-----------------------------------------|
|-------------5+--------------------------|
|-1p0-0-1p0-0----0-0-1p0-0-5+-0-0-0h1p0-0-|
      *     *    * *     *    * *       *

Verse begins from that sound
B |-----|
F#|-----|
B |-12\-|

Verse(X2)
Both guitars
|---------------------------------------| 
|---------------------------------------|
|---------------------------------------|
|-------------4-------------------------|
|-------------2-----------6-------------|
|-1p0-0-1p0-0---0-0-1p0-0-6-0-0-0h1p0-0-|
      *     *   * *     *   * *       *
|------------------------------------| 
|------------------------------------|
|------------------------------------|
|-------------4----------------------|
|-------------2-----<6>^---------3p2-|
|-1p0-0-1p0-0---0-0-------<2>p<0>----|
      *     *   * *     
|-------------------------------------------| 
|-------------------------------------------|
|-------------------------------------------|
|-------------4-3-2-------------------------|
|-------------2-1-0-----------6-------------|
|-1p0-0-1p0-0-------0-0-1p0-0-6-0-0-0h1p0-0-|
      *     *       * *     *   * *       *
|-----------------------------------| 
|-----------------------------------|
|-----------------------------------|
|-------------4---------------------|
|-------------2-----7-7-6-6-5-5-4-4-|
|-1p0-0-1p0-0---0-0-7-7-6-6-5-5-4-4-|
      *     *   * *

Bridge 1st part(X1)
Both guitars
|--------------------------------------------------------------| 
|------------------------------------------------------9-9-8-8-|
|--------------------------------------------------------------|
|---5--5-----------4--4-----------5--5-------------------------|
|---3--3-----------2--2-----------3--3---------9-9-8-8---------|
|-0------6-6-5-5-0------6-6-5-5-0------6-6-5-5-9-9-8-8---------|
  *              *              *              * * * *

Verse 2(X4)
|---------------------------------------| 
|---------------------------------------|
|---------------------------------------|
|-------------4-------------------------|
|-------------2-----------6-------------|
|-1p0-0-1p0-0---0-0-1p0-0-6-0-0-0h1p0-0-|
      *     *   * *     *   * *       *

Post-verse riff(X4)
Gtr 1
|-------------------------| 
|-------------------------|
|-------------------------|
|-0tr-1tr-2tr-----6tr-5tr-|
|-------------2tr---------|
|-------------------------|
Gtr 2
|-------------------------| 
|-------------------------|
|-------------------------|
|-------------------------|
|---------2tr-------------|
|-0tr-1tr-----2tr-6tr-5tr-|

Bridge:

1st part(X1)
Both guitars
|--------------------------------------------------------------| 
|------------------------------------------------------9-9-8-8-|
|--------------------------------------------------------------|
|---5--5-----------4--4-----------5--5-------------------------|
|---3--3-----------2--2-----------3--3---------9-9-8-8---------|
|-0------6-6-5-5-0------6-6-5-5-0------6-6-5-5-9-9-8-8---------|
  *              *              *              * * * *
2nd part(X1)
Both guitars
|--------------------------------------------------------------| 
|--------------------------------------------------------------|
|--------------------------------------------------------------|
|---5--5-----------4--4-----------5--5-------------------------|
|---3--3-----------2--2-----------3--3---------5-6-5-3-3-1-1-0-|
|-0------6-6-5-5-0------6-6-5-5-0------6-6-5-5-5-6-5-3-3-1-1-0-|
  *              *              *              * * * * * * * *

Pre-chorus:

1st part(X2)
Gtr 1
|--------------------------------| 
|--------------------------------|
|--------------------------------|
|--------------------------------|
|-----5---6---5---5-6-5-0-3-0-1--|
|-0-0-5-0-6-0-5-0-5-6-5-0-3-0-1--|
  * *   *   *   * * * * * * *
Gtr 2
|--------------------------------| 
|--------------------------------|
|--------------------------------|
|--------------------------------|
|-0-0-------------5-6-5-0-3-0-1--|
|-0-0-------------5-6-5-0-3-0-1--|
  * *             * * * * * *
2nd part(X1)
Gtr 1
|----------------------------------------------------------------| 
|----------------------------------------------------------------|
|----------------------------------------------------------------|
|------------------------------------------------8-7-5---7-5-----|
|-----5---6---5---5-6-5-0-3-0-1--0---5---6---5---------7-----7-6-|
|-0-0-5-0-6-0-5-0-5-6-5-0-3-0-1--0-0-5-0-6-0-5-0-----------------|
  * *   *   *   * * * * * * *    * *   *   *   *
Gtr 2
|----------------------------------------------------------------| 
|----------------------------------------------------------------|
|----------------------------------------------------------------|
|----------------------------------------------------------------|
|-0-------0-------0-------0-------0-------0----------------------|
|-0-------0-------0-------0-------0-------0------8-7-5-1-7-5-1-0-|
                                                 * * * * * * * *
3rd part(X4)
Both guitars
|--------------------------------| 
|--------------------------------|
|--------------------------------|
|--------------------------------|
|-----0---1---0---5-6-5-0-3-0-1--|
|-0-0-0-0-1-0-0-0-5-6-5-0-3-0-1--|
  * *   *   *   * * * * * * *
Last time — without 6-5-0-3-0-1 at the end.
Pause, then that riff:
B |-----|
F#|-----|
B |-13\-|


Chorus(X2):

1st part(X3)
Gtr 1
|-------------------------------| 
|-------------------------------|
|-------------------------------|
|-----------------------------8-|
|-----5---6---5---5-6-5-0-3-0-6-|
|-0-0-5---6---5---5-6-5-0-3-0---|
  * *             * * * * * *
Gtr 2
|-------------------------------| 
|-------------------------------|
|-------------------------------|
|-------------------------------|
|-----5---6---5---5-6-5-0-3-0-1-|
|-0-0-5---6---5---5-6-5-0-3-0-1-|
  * *             * * * * * *
2nd part
Gtr 1
|--------------------------| 
|--------------------------|
|--------------------------|
|--------------------------|
|-----5---6---5---6-\-<7>^-|
|-0-0-5---6---5---6-\------|
  * *
Gtr 2
|--------------------------| 
|--------------------------|
|--------------------------|
|--------------------------|
|-----5---6---5------------|
|-0-0-5---6---5---6-\-<4>^-|
  * *

Foof, that was pretty easy.
Now time for f@€king hard solo part!!
(My first hard solo I ever tabbed)
(Sorry, here is only Mick's part)

|----17-19-17-19-17-20-18----17-18-19-20-17-19-17-19-17-21-18-21-17-20-18-|
|-18----------------------18----------------------------------------------|
|-------------------------------------------------------------------------|
|-------------------------------------------------------------------------|
|-------------------------------------------------------------------------|
|-------------------------------------------------------------------------|

|----17-19-20-18-20-17-20-17-19-21-18-20-17-20-18-19-17-19-16----|
|-18----------------------------------------------------------18-|
|----------------------------------------------------------------|
|----------------------------------------------------------------|
|----------------------------------------------------------------|
|----------------------------------------------------------------|

|-17-20-18-21-17-20-18-20-19-17-14-12-11-14-12-14-13-12-11-13-11-12-11-|
|----------------------------------------------------------------------|
|----------------------------------------------------------------------|
|----------------------------------------------------------------------|
|----------------------------------------------------------------------|
|----------------------------------------------------------------------|

|-14-11-12-13-14-11-13-14-12-14-13-14-12-11-12-11-14-11-13-12-11-13-|
|-------------------------------------------------------------------|
|-------------------------------------------------------------------|
|-------------------------------------------------------------------|
|-------------------------------------------------------------------|
|-------------------------------------------------------------------|

|-14-12-13-14-12-11-14-13-12-11-13-11-12-11----11-12-13-14-11-13-14----|
|-------------------------------------------12----------------------12-|
|----------------------------------------------------------------------|
|----------------------------------------------------------------------|
|----------------------------------------------------------------------|
|----------------------------------------------------------------------|

|-12-11-12-11-13-14-12-11-13-14-12-13-14-12-11-|
|----------------------------------------------|
|----------------------------------------------|
|----------------------------------------------|
|----------------------------------------------|
|----------------------------------------------|

|----------------------16v----15v----16--14--16-17v-19-19-18--|
|-------------------------------------------------------------|
|-16^~~~--10----8---7-----------------------------------------|
|-------------------------------------------------------------|
|-------------------------------------------------------------|
|-------------------------------------------------------------|

|---------------------------------------------------------------------|
|---------------------------------------------------------------------|
|---------------------------------------------------------------------|
|---------------------------------------------------------------------|
|-0---0-0-0-0-0-0--6---6-6-6-6-6-6--5---5-5-5-5-5-5--8---8-8--3---3-3-|
|-0---0-0-0-0-0-0--6---6-6-6-6-6-6--5---5-5-5-5-5-5--8---8-8--3---3-3-|
      * * * * * *      * * * * * *      * * * * * *      * *      * *

Post-solo riff

1st part(X2)
Gtr 1
|----------------------------------------------|
|----------------------------------------------|
|-7--5--7--8--7--5--7--8--7--5--7--8--10-\--/6-|
|-x--x--x--x--x--x--x--x--x--x--x--x---x-\--/x-|
|-5--3--5--6--5--3--5--6--5--3--5--6---8-\--/4-|
|----------------------------------------------|
Gtr 2(let ring)
|------------------------------------------------|
|------------------------------------------------|
|------------------------------------------------|
|------------------------------------------------|
|-0-----------6-----------5------------8-----3---|
|-0-----------6-----------5------------8-----3---|

2nd part(X2)
Gtr 1
|------------------------------------------------------------|
|------------------------------------------------------------|
|-10---9---10--12--10---9---10--12--10---9---10-12--14-\--/9-|
|-x----x---x---x---x----x---x---x---x----x---x--x---x--\--/x-|
|-8----7---8---10--8----7---8---10--8----7---8--10--12-\--/7-|
|------------------------------------------------------------|
Gtr 2(palm muted)
|-----------------------------------------------------------------|
|-----------------------------------------------------------------|
|-----------------------------------------------------------------|
|-----------------------------------------------------------------|
|-----------------------------------------------------------------|
|-0-0-0-0-0-0-0-0-6-6-6-6-6-6-6-6-5-5-5-5-5-5-5-5-8-8-8-8-3-3-3-3-|


Chorus(X1):

1st part(X3)
Gtr 1
|-------------------------------| 
|-------------------------------|
|-------------------------------|
|-----------------------------8-|
|-----5---6---5---5-6-5-0-3-0-6-|
|-0-0-5---6---5---5-6-5-0-3-0---|
  * *             * * * * * *
Gtr 2
|-------------------------------| 
|-------------------------------|
|-------------------------------|
|-------------------------------|
|-----5---6---5---5-6-5-0-3-0-1-|
|-0-0-5---6---5---5-6-5-0-3-0-1-|
  * *             * * * * * *
2nd part
Gtr 1
|--------------------------| 
|--------------------------|
|--------------------------|
|--------------------------|
|-----5---6---5---6-\-<7>^-|
|-0-0-5---6---5---6-\------|
  * *
Gtr 2
|--------------------------| 
|--------------------------|
|--------------------------|
|--------------------------|
|-----5---6---5------------|
|-0-0-5---6---5---6-\-<4>^-|
  * *

1st part(X3)
Gtr 1
|-------------------------------| 
|-------------------------------|
|-------------------------------|
|-----------------------------8-|
|-----5---6---5---5-6-5-0-3-0-6-|
|-0-0-5---6---5---5-6-5-0-3-0---|
  * *             * * * * * *
Gtr 2
|-------------------------------| 
|-------------------------------|
|-------------------------------|
|-------------------------------|
|-----5---6---5---5-6-5-0-3-0-1-|
|-0-0-5---6---5---5-6-5-0-3-0-1-|
  * *             * * * * * *
3rd part(X1)
Gtr 1
|----------------------------| 
|----------------------------|
|----------------------------|
|----------------------------|
|-----5---6---5---6-\--1-1-1-|
|-0-0-5---6---5---6-\--1-1-1-|
  * *                  * * *
Gtr 2
|----------------------------| 
|----------------------------|
|----------------------------|
|----------------------------|
|-----5---6---5--------------|
|-0-0-5---6---5---6-\--1-1-1-|
  * *                  * * *


Interlude(X12)

That part is main, first 4 times it played only by guitar 1,
|--------------------------------|
|--------------------------------|
|--------------------------------|
|-----------4--------------------|
|-1p0-0-0-0-2-0-0-1-0-0-6-0-0-0h-|
|-1p0-0-0-0---0-0-1-0-0-6-0-0-0h-|
      *   *   * *   * *   * *
2nd guitar starts playing this V on 3rd time and ends at 5th time
|-----------------------------------------------------------|
|-----------------------------------------------------------|
|-7-------10-9-10------10-12-8------10-9-10--9--7--9--7-----|
|-x--------x-x--x-------x--x-x-------x-x--x--x--x--x--x--5\-|
|-5--------8-7--8-------8-10-6-------8-7--8--7--5--7--5--5\-|
|-----------------------------------------------------------|

Last 4 times main part begins with that riff:
B |-----|
F#|-----|
B |-15\-|

'Pause'

Verse(X2)
Both guitars
|---------------------------------------| 
|---------------------------------------|
|---------------------------------------|
|-------------4-------------------------|
|-------------2-----------6-------------|
|-1p0-0-1p0-0---0-0-1p0-0-6-0-0-0h1p0-0-|
      *     *   * *     *   * *       *
|------------------------------------| 
|------------------------------------|
|------------------------------------|
|-------------4----------------------|
|-------------2-----<6>^---------3p2-|
|-1p0-0-1p0-0---0-0-------<2>p<0>----|
      *     *   * *     
|-------------------------------------------| 
|-------------------------------------------|
|-------------------------------------------|
|-------------4-3-2-------------------------|
|-------------2-1-0-----------6-------------|
|-1p0-0-1p0-0-------0-0-1p0-0-6-0-0-0h1p0-0-|
      *     *       * *     *   * *       *
|-----------------------------------| 
|-----------------------------------|
|-----------------------------------|
|-------------4---------------------|
|-------------2-----7-7-6-6-5-5-4-4-|
|-1p0-0-1p0-0---0-0-7-7-6-6-5-5-4-4-|
      *     *   * *

Bridge 1st part(X1)
Both guitars
|--------------------------------------------------------------| 
|------------------------------------------------------9-9-8-8-|
|--------------------------------------------------------------|
|---5--5-----------4--4-----------5--5-------------------------|
|---3--3-----------2--2-----------3--3---------9-9-8-8---------|
|-0------6-6-5-5-0------6-6-5-5-0------6-6-5-5-9-9-8-8---------|
  *              *              *              * * * *

2nd part(X1)
Both guitars
|--------------------------------------------------------------|
|--------------------------------------------------------------|
|--------------------------------------------------------------|
|---5--5-----------4--4-----------5--5-------------------------|
|---3--3-----------2--2-----------3--3---------5-6-5-3-3-1-1-0-|
|-0------6-6-5-5-0------6-6-5-5-0------6-6-5-5-5-6-5-3-3-1-1-0-|
  *              *              *              * * * * * * *

Pre-chorus:

1st part(X2)
1st part(X2)
Gtr 1
|--------------------------------| 
|--------------------------------|
|--------------------------------|
|--------------------------------|
|-----5---6---5---5-6-5-0-3-0-1--|
|-0-0-5-0-6-0-5-0-5-6-5-0-3-0-1--|
  * *   *   *   * * * * * * *
Gtr 2
|--------------------------------| 
|--------------------------------|
|--------------------------------|
|--------------------------------|
|-0-0-------------5-6-5-0-3-0-1--|
|-0-0-------------5-6-5-0-3-0-1--|
  * *             * * * * * *

2nd part(X1)
Gtr 1
|-------------------------------------------------------------| 
|-------------------------------------------------------------|
|-------------------------------------------------------------|
|-------------------------------------------------------------|
|-----5---6---5---5-6-5-0-3-0-1------5---6---5--3-------------|
|-0-0-5-0-6-0-5-0-5-6-5-0-3-0-1--0-0-5-0-6-0-5--3---------13\-|
  * *   *   *   * * * * * * *    * *   *   *
Gtr 2
|-------------------------------------------------------------| 
|-------------------------------------------------------------|
|-------------------------------------------------------------|
|-------------------------------------------------------------|
|-0-------0-------0-------0-------0-------0-----3-------------|
|-0-------0-------0-------0-------0-------0-----3---------14\-|



Chorus(X2):
1st part(X3)
Gtr 1
|-------------------------------| 
|-------------------------------|
|-------------------------------|
|-----------------------------8-|
|-----5---6---5---5-6-5-0-3-0-6-|
|-0-0-5---6---5---5-6-5-0-3-0---|
  * *             * * * * * *
Gtr 2
|-------------------------------| 
|-------------------------------|
|-------------------------------|
|-------------------------------|
|-----5---6---5---5-6-5-0-3-0-1-|
|-0-0-5---6---5---5-6-5-0-3-0-1-|
  * *             * * * * * *
2nd part
Gtr 1
|--------------------------| 
|--------------------------|
|--------------------------|
|--------------------------|
|-----5---6---5---6-\-<7>^-|
|-0-0-5---6---5---6-\------|
  * *
Gtr 2
|--------------------------| 
|--------------------------|
|--------------------------|
|--------------------------|
|-----5---6---5------------|
|-0-0-5---6---5---6-\-<4>^-|
  * *

1st part(X3)
Gtr 1
|-------------------------------| 
|-------------------------------|
|-------------------------------|
|-----------------------------8-|
|-----5---6---5---5-6-5-0-3-0-6-|
|-0-0-5---6---5---5-6-5-0-3-0---|
  * *             * * * * * *
Gtr 2
|-------------------------------| 
|-------------------------------|
|-------------------------------|
|-------------------------------|
|-----5---6---5---5-6-5-0-3-0-1-|
|-0-0-5---6---5---5-6-5-0-3-0-1-|
  * *             * * * * * *
3rd part(X1)
Gtr 1
|----------------------------| 
|----------------------------|
|----------------------------|
|----------------------------|
|-----5---6---5---6-\--1-1-1-|
|-0-0-5---6---5---6-\--1-1-1-|
  * *                  * * *
Gtr 2
|----------------------------| 
|----------------------------|
|----------------------------|
|----------------------------|
|-----5---6---5--------------|
|-0-0-5---6---5---6-\--1-1-1-|
  * *                  * * *


Interlude(X8)

Both guitars
|--------------------------------|
|--------------------------------|
|--------------------------------|
|-----------4--------------------|
|-1p0-0-0-0-2-0-0-1-0-0-6-0-0-0h-|
|-1p0-0-0-0---0-0-1-0-0-6-0-0-0h-|
      *   *   * *   * *   * *

Last 4 times main part begins with that riff:
B |-----|
F#|-----|
B |-15\-|

Outro palm muted riff
B |-1-|
F#|-1-|
B |-1-|
Tap to rate this tab
# A B C D E F G H I J K L M N O P Q R S T U V W X Y Z