Song name
# A B C D E F G H I J K L M N O P Q R S T U V W X Y Z

Slipknot - Heretic Anthem tab

Intro:

Mick:
 B |-----------------|
 F#|-----------------|
 D |-----------------|
 A |-------------7/0-|
 E |-------------7/0-|
 A |-------------7/0-|
 
 
                                                             _
 B |-----------------|----------------|----------------|----------------|  \
 F#|-----------------|----------------|----------------|----------------|  |
 D |-----------------|----------------|----------------|----------------|  |
 A |-0-0-0-1-0-0-0-1-|0-0-0-1-0-0-0-1-|0-0-0-1-0-0-0-1-|0-0-0-1-0-0-0-1-|  |
 E |-0-0-0-1-0-0-0-1-|0-0-0-1-0-0-0-1-|0-0-0-1-0-0-0-1-|0-0-0-1-0-0-0-1-|  |
 A |-0-0-0-1-0-0-0-1-|0-0-0-1-0-0-0-1-|0-0-0-1-0-0-0-1-|0-0-0-1-0-0-0-1-|  |
 PM  - - -   - - -    - - -   - - -    - - -   - - -    - - -   - - -       \ \
                                                                             > X1  
 James:                                                                 / 
 B |-----------------|----------------|----------------|----------------|  |
 F#|-----------------|----------------|----------------|----------------|  |
 D |-----------------|----------------|----------------|----------------|  |
 A |-----------------|------------7/0-|0-0-0-1-0-0-0-1-|0-0-0-1-0-0-0-1-|  |
 E |-----------------|------------7/0-|0-0-0-1-0-0-0-1-|0-0-0-1-0-0-0-1-|  |
 A |-----------------|------------7/0-|0-0-0-1-0-0-0-1-|0-0-0-1-0-0-0-1-| _/
 PM                                    - - -   - - -    - - -   - - -
 
 
 Both Guitars
 B |-----------------|----------------|-----------------|----------------|
 F#|-----------------|----------------|-----------------|----------------|
 D |-----------------|----------------|-----------------|----------------|
 A |-0-0-0-1-0-0-0-1-|0-0-0-1-0-0-0-1-|-0-0-0-1-0-0-0-1-|0-0-0-1-0-0-0-1-|
 E |-0-0-0-1-0-0-0-1-|0-0-0-1-0-0-0-1-|-0-0-0-1-0-0-0-1-|0-0-0-1-0-0-0-1-|
 A |-0-0-0-1-0-0-0-1-|0-0-0-1-0-0-0-1-|-0-0-0-1-0-0-0-1-|0-0-0-1-0-0-0-1-|
 PM  - - -   - - -    - - -   - - -     - - -   - - -    - - -   - - -
 
 
 when corey screams and drums begins:
 
 
 Both Guitars
 B |-----------------|----------------|-----------------|----------------|
 F#|-----------------|----------------|-----------------|----------------|
 D |-----------------|----------------|-----------------|----------------|
 A |-0-0-0-1-0-0-0-1-|0-0-0-1-0-0-0-1-|-0-0-0-1-0-0-0-1-|0-0-0-1-0-0-0-1-|
 E |-0-0-0-1-0-0-0-1-|0-0-0-1-0-0-0-1-|-0-0-0-1-0-0-0-1-|0-0-0-1-0-0-0-1-|
 A |-0-0-0-1-0-0-0-1-|0-0-0-1-0-0-0-1-|-0-0-0-1-0-0-0-1-|0-0-0-1-0-0-0-1-|
 PM  - - -   - - -    - - -   - - -     - - -   - - -    - - -   - - -
 
 
 james: (On its own)
 B |-----------------|----------------|
 F#|-----------------|----------------|
 D |-----------6-5---|----3-2-2-------|
 A |-0-0-3-2-0-6-5-4-|3-0-3-2-2-0-1-0-|
 E |-0-0-3-2-0-4-3-4-|3-0-1-0-0-0-1-0-|
 A |-0-0-3-2-0-----4-|3-0-------0-1-0-|
 PM  - -     -
 
 
james and mick: (verse)
 B |-----------------|----------------|       
 F#|-----------------|----------------|
 D |-----------6-5---|----3-2-2-------|  
 A |-0-0-3-2-0-6-5-4-|3-0-3-2-2-0-1-0-|  X8
 E |-0-0-3-2-0-4-3-4-|3-0-1-0-0-0-1-0-| 
 A |-0-0-3-2-0-----4-|3-0-------0-1-0-|
 PM  - -     -
 
 
 Both Guitars (chrous)
 B |-----------------|----------------|----------------|----------------|
 F#|-----------------|----------------|----------------|----------------| 
 D |-----------------|----------------|----------------|----------------|  
 A |-2---3/4/5-4---5/|6---5-6-6-7---7-|2---3/4/5-4---5/|6---5-6-6-7---7-| X4
 E |-2---3/4/5-4---5/|6---5-6-6-7---7-|2---3/4/5-4---5/|6---5-6-6-7---7-|
 A |-2---3/4/5-4---5/|6---5-6-6-7---7-|2---3/4/5-4---5/|6---5-6-6-7---7-|
 PM  -
 
 
 
 james: (On its own)
 B |-----------------|----------------|
 F#|-----------------|----------------|
 D |-----------6-5---|----3-2-2-------|
 A |-0-0-3p2-0-6-5-4-|3-0-3-2-2-0-1-0-|
 E |-0-0-3p2-0-4-3-4-|3-0-1-0-0-0-1-0-|
 A |-0-0-3p2-0-----4-|3-0-------0-1-0-|
 PM  - -     -
 
 
 Both Guitars
 B |-----------------|----------------|-----------------|----------------|
 F#|-----------------|----------------|-----------------|----------------| 
 D |-----------------|----------------|-----------------|----------------|  
 A |-0-0-0-1-0-0-0-1-|0-0-1-2-3-2-4-5-|-0-0-0-1-0-0-0-1-|0-0-2-3-4-3-4-5-|  X4
 E |-0-0-0-1-0-0-0-1-|0-0-1-2-3-2-4-5-|-0-0-0-1-0-0-0-1-|0-0-2-3-4-3-4-5-| 
 A |-0-0-0-1-0-0-0-1-|0-0-1-2-3-2-4-5-|-0-0-0-1-0-0-0-1-|0-0-2-3-4-3-4-5-|
 PM  - - -   - - -    - -               - - -   - - -    - -
 
 
 Both Guitars
 B |-----------------|----------------|----------------|----------------|
 F#|-----------------|----------------|----------------|----------------| 
 D |-----------------|----------------|----------------|----------------|  X4
 A |-2---3/4/5-4---5/|6---5-6-6-7---7-|2---3/4/5-4---5/|6---5-6-6-7---7-|  
 E |-2---3/4/5-4---5/|6---5-6-6-7---7-|2---3/4/5-4---5/|6---5-6-6-7---7-| 
 A |-2---3/4/5-4---5/|6---5-6-6-7---7-|2---3/4/5-4---5/|6---5-6-6-7---7-|
 PM  -
 
 
 Drum solo (Both Guitars)
 B |-----------------|----------------|--------------------|
 F#|-----------------|----------------|--------------------|
 D |-----------------|----------------|--------------------|
 A |-----------------|----------------|------------------3-|
 E |-----------------|----------------|------------------3-|
 A |-----------------|----------------|------------------3-|
     1 & 2 & 3 & 4 &  1 & 2 & 3 & 4 &  1 & 2 & 3 & 4 & 5 &
 
 
mick:                                                                _
 B |-----------------|----------------|----------------|----------------|  \
 F#|-----------------|----------------|----------------|----------------|  |
 D |-----------------|----------------|----------------|----------------|  |
 A |-0-1-0-3---------|----------------|----------------|----------------|  |
 E |-0-1-0-3---------|----------------|----------------|----------------|  |
 A |-0-1-0-3---------|----------------|----------------|----------------|  | 
                                                                            \ 
 james:                                                                 / X1
 B |-----------------|----------------|----------------|----------------|  | 
 F#|-----------------|----------------|----------------|----------------|  |
 D |-----------------|----------------|----------------|----------------|  |
 A |-0-1-0-3-0-0-0-0-|0-1-2-3-0-1-0-3-|0-1-2-3-0-0-0-0-|0-6-5-0-4-3-0-3-|  |
 E |-0-1-0-3-0-0-0-0-|0-1-2-3-0-1-0-3-|0-1-2-3-0-0-0-0-|0-6-5-0-4-3-0-3-|  |
 A |-0-1-0-3-0-0-0-0-|0-1-2-3-0-1-0-3-|0-1-2-3-0-0-0-0-|0-6-5-0-4-3-0-3-| _/
 PM          - - - -  -                        - - - -  -     -     -
 
 
 Both Guitars
 B |-----------------|----------------|----------------|----------------|
 F#|-----------------|----------------|----------------|----------------|
 D |-----------------|----------------|----------------|----------------|
 A |-0-1-0-3-0-0-0-0-|0-1-2-3-0-1-0-3-|0-1-2-3-0-0-0-0-|0-6-5-0-4-3-----|
 E |-0-1-0-3-0-0-0-0-|0-1-2-3-0-1-0-3-|0-1-2-3-0-0-0-0-|0-6-5-0-4-3-----|
 A |-0-1-0-3-0-0-0-0-|0-1-2-3-0-1-0-3-|0-1-2-3-0-0-0-0-|0-6-5-0-4-3-----|
 PM          - - - -  -                        - - - -  -     -
 
 
 Both Guitars (Leave out harmonic at end of 2nd time)                     _
 B |-----------------|----------------|----------------|----------------|  \
 F#|-----------------|----------------|----------------|----------------|  |
 D |-----------------|----------------|----------------|----------------|  |
 A |-0-1-0-3-0-0-0-0-|0-1-2-3-0-1-0-3-|0-1-2-3-0-0-0-0-|0-6-5-0-4-3-0-3-|  |
 E |-0-1-0-3-0-0-0-0-|0-1-2-3-0-1-0-3-|0-1-2-3-0-0-0-0-|0-6-5-0-4-3-0-3-|  |       
 A |-0-1-0-3-0-0-0-0-|0-1-2-3-0-1-0-3-|0-1-2-3-0-0-0-0-|0-6-5-0-4-3-0-3-|  | 
 PM          - - - -  -                        - - - -  -     -     -       \ 
                                                                            / X2
 B |-----------------|----------------|----------------|----------------|  | 
 F#|-----------------|----------------|----------------|----------------|  |
 D |-----------------|----------------|----------------|----------------|  |
 A |-0-1-0-3-0-0-0-0-|0-1-2-3-0-1-0-3-|0-1-2-3-0-0-0-0-|0-6-5-0-4-3-----|  |
 E |-0-1-0-3-0-0-0-0-|0-1-2-3-0-1-0-3-|0-1-2-3-0-0-0-0-|0-6-5-0-4-3-2.1*|  |
 A |-0-1-0-3-0-0-0-0-|0-1-2-3-0-1-0-3-|0-1-2-3-0-0-0-0-|0-6-5-0-4-3-----| _/
 PM          - - - -  -                        - - - -  -     -
 
 
 Both Guitars
 B |-----------------|----------------|----------------|----------------|
 F#|-----------------|----------------|----------------|----------------|
 D |-----------------|----------------|----------------|----------------|
 A |-0-1-0-3---------|--1-2-3-0-1-0-3-|0-1-2-3---------|------1-5-1-----|
 E |-0-1-0-3---------|--1-2-3-0-1-0-3-|0-1-2-3---------|------1-5-1-----|
 A |-0-1-0-3---------|--1-2-3-0-1-0-3-|0-1-2-3---------|------1-5-1-----|
 
 
 Both Guitars
 B |-----------------|----------------|----------------|----------------|
 F#|-----------------|----------------|----------------|----------------|
 D |-----------------|----------------|----------------|----------------|
 A |-0-1-0-3---------|--1-2-3-0-1-0-3-|0-1-2-3---------|----------0-0-0-|
 E |-0-1-0-3---------|--1-2-3-0-1-0-3-|0-1-2-3---------|----------0-0-0-|
 A |-0-1-0-3---------|--1-2-3-0-1-0-3-|0-1-2-3---------|----------0-0-0-|
 
 
 1st Guitar                                                               _
 B |-----------------|----------------|----------------|----------------|  \
 F#|-----------------|----------------|----------------|----------------|  |
 D |-----------------|----------------|----------------|----------------|  |
 A |-0-1-0-3---------|--1-2-3-0-1-0-3-|0-1-2-3---------|------1-5-1-----|  |
 E |-0-1-0-3---------|--1-2-3-0-1-0-3-|0-1-2-3---------|------1-5-1-----|  |
 A |-0-1-0-3---------|--1-2-3-0-1-0-3-|0-1-2-3---------|------1-5-1-----|  | 
                                                                            \ 
 2nd Guitar                                                                 / X1
 B |-----------------|----------------|----------------|----------------|  | 
 F#|-----------------|----------------|----------------|----------------|  |
 D |-----------------|----------------|----------------|----------------|  |
 A |-----------------|----------------|----------------|----------------|  |
 E |-----------------|----------------|----------------|----------------|  |
 A |-0-0-0-0-0-0-0-0-|0-0-0-0-0-0-0-0-|0-0-0-0-0-0-0-0-|0-0-0-0-0-0-0-0-| _/
 PM  - - - - - - - -  - - - - - - - -  - - - - - - - -  - - - - - - - -
 
 
 1st Guitar                                                               _
 B |-----------------|----------------|----------------|----------------|  \
 F#|-----------------|----------------|----------------|----------------|  |
 D |-----------------|----------------|----------------|----------0-----|  |
 A |-0-1-0-3---------|--1-2-3-0-1-0-3-|0-1-2-3---------|------------0---|  |
 E |-0-1-0-3---------|--1-2-3-0-1-0-3-|0-1-2-3---------|--------------0-|  |
 A |-0-1-0-3---------|--1-2-3-0-1-0-3-|0-1-2-3---------|----------------|  | 
                                                                            \ 
 2nd Guitar                                                                 /  X1
 B |-----------------|----------------|----------------|----------------|  |
 F#|-----------------|----------------|----------------|----------------|  |
 D |-----------------|----------------|----------------|----------0-----|  |
 A |-----------------|----------------|----------------|------------0---|  |
 E |-----------------|----------------|----------------|--------------0-|  |
 A |-0-0-0-0-0-0-0-0-|0-0-0-0-0-0-0-0-|0-0-0-0-0-0-0-0-|0-0-0-0-0-------| _/
 PM  - - - - - - - -  - - - - - - - -  - - - - - - - -  - - - - -
 
 
Mick: (Tremolo)
 B |-----------------|----------------|----------------|----------------|
 F#|-----------------|----------------|----------------|----------------| 
 D |-----------------|----------------|----------------|----------------| 
 A |-2-2-2-2-5-5-5-5-|4-4-4-4-5-5-5-5-|6-6-6-6-5-5-6-6-|6-6-7-7-7-7-7-7-|  X4
 E |-----------------|----------------|----------------|----------------|
 A |-----------------|----------------|----------------|----------------|
 
mick: (Tremolo) (2nd Guitar plays weird/random solo)
 B |-----------------|----------------|----------------|----------------|
 F#|-5-5-5-5-8-8-8-8-|7-7-7-7-8-8-8-8-|9-9-9-9-8-8-9-9-|9-9-101010101010| 
 D |-----------------|----------------|----------------|----------------|  
 A |-----------------|----------------|----------------|----------------| X4
 E |-----------------|----------------|----------------|----------------| 
 A |-----------------|----------------|----------------|----------------|
 
 
Mick and james:
 B |-----------------|----------------|----------------|----------------|       
 F#|-----------------|----------------|----------------|----------------| 
 D |-----------------|----------------|----------------|----------------|  
 A |-2---3/4/5-4---5/|6---5-6-6-7---7-|2---3/4/5-4---5/|6---5-6-6-7---7-|  X2
 E |-2---3/4/5-4---5/|6---5-6-6-7---7-|2---3/4/5-4---5/|6---5-6-6-7---7-| 
 A |-2---3/4/5-4---5/|6---5-6-6-7---7-|2---3/4/5-4---5/|6---5-6-6-7---7-|
 
 
 1st Guitar (Tremolo)                                                     _
 B |-----------------|----------------|----------------|----------------|  \
 F#|-5ttt8ttt7ttt8ttt|9ttt8t9ttt10tttt|5ttt8ttt7ttt8ttt|9ttt8t9ttt10tttt|  |
 D |-----------------|----------------|----------------|----------------|  |
 A |-----------------|----------------|----------------|----------------|  |
 E |-----------------|----------------|----------------|----------------|  |      
 A |-----------------|----------------|----------------|----------------|  | 
                                                                            \  X2
 2nd Guitar                                                                 / 
 B |-----------------|----------------|----------------|----------------|  | 
 F#|-----------------|----------------|----------------|----------------|  |
 D |-----------------|----------------|----------------|----------------|  |
 A |-2---3/4/5-4---5/|6---5-6-6-7---7-|2---3/4/5-4---5/|6---5-6-6-7---7-|  |
 E |-2---3/4/5-4---5/|6---5-6-6-7---7-|2---3/4/5-4---5/|6---5-6-6-7---7-|  |
 A |-2---3/4/5-4---5/|6---5-6-6-7---7-|2---3/4/5-4---5/|6---5-6-6-7---7-| _/
 
 
 
 Both Guitars
 B |-----------------|----------------|----------------|----------------|       
 F#|-----------------|----------------|----------------|----------------|
 D |-----------------|----------------|----------------|----------------|  
 A |-0-1-0-3-0-0-0-0-|0-1-2-3-0-1-0-3-|0-1-2-3-0-0-0-0-|0-6-5-0-4-3-0-3-|  X3
 E |-0-1-0-3-0-0-0-0-|0-1-2-3-0-1-0-3-|0-1-2-3-0-0-0-0-|0-6-5-0-4-3-0-3-| 
 A |-0-1-0-3-0-0-0-0-|0-1-2-3-0-1-0-3-|0-1-2-3-0-0-0-0-|0-6-5-0-4-3-0-3-|
 PM          - - - -  -                        - - - -  -     -     -
 
 
 Both Guitars
 B |-----------------|----------------|----------------|----------------|
 F#|-----------------|----------------|----------------|----------------|
 D |-----------------|----------------|----------------|----------------|
 A |-0-1-0-3-0-0-0-0-|0-1-2-3-0-1-0-3-|0-1-2-3-0-0-0-0-|0-6-5-0-4-------|
 E |-0-1-0-3-0-0-0-0-|0-1-2-3-0-1-0-3-|0-1-2-3-0-0-0-0-|0-6-5-0-4-------|
 A |-0-1-0-3-0-0-0-0-|0-1-2-3-0-1-0-3-|0-1-2-3-0-0-0-0-|0-6-5-0-4-------|

well...that's it. it will sound perfect with an ibanez mtm1.
please rate..   good luck headbangers..!!!!
Tap to rate this tab
 
# A B C D E F G H I J K L M N O P Q R S T U V W X Y Z