Song name
# A B C D E F G H I J K L M N O P Q R S T U V W X Y Z

Slipknot - New Abortion tab

slipknot
New Abortion
tabbed by dieter oberholster

intro
-------------------------------------------------------------------------------|
-------------------------------------------------------------------------------|
-------------------------------------------------------------------------------|
0-0-0--------------------------------------------------------------------------|
0-0-0--------------------------------------------------------------------------|
0-0-0---0-0-0-0--0-0-0-0--0-0-0-0--0-0-0-0--0-0-0-0--0-0-0-0--0-0-0-0--0-0-0-0-|

P.M..........................................................................


Guitar 1
(Fig. 2)
---------------------------------------------------|
---------------------------------------------------|
---------------------------------------------------|
---------------------------------------------------|
---------------------------------------------------|
-0-0-1-0-2h3-0-1--0-0-1h2-0-0-6p5------------------|


Guitar 2
(Fig. 2)
-------------------------------------------|
-------------------------------------------|
-------------------------------------------|
-0-0-0--0-0-0--0-0-0--0-0-0----------------|
-0-0-0--0-0-0--0-0-0--0-0-0----------------|
-0-0-0--0-0-0--0-0-0--0-0-0----------------|


Cory screams..
---------------------------------------------------|
---------------------------------------------------|
---------------------------------------------------|
---------------------------------------------------|
-0-0-1-0-2h3-0-1--0-0-1h2-0-0-6p5------------------|
-0-0-1-0-2h3-0-1--0-0-1h2-0-0-6p5------------------|


---------------------------------------------|
---------------------------------------------|
-*14B*--*12B*--------------------------------|  x4
---------------------------------------------|
---------------------------------------------|
---------------------------------------------|


---------------------------------------------------|
---------------------------------------------------|
---------------------------------------------------|
-0-0-1-0-2h3-0-1--0-0-1h2-0-0-6p5------------------|
---------------------------------------------------|
---------------------------------------------------|


Everywhere you look it's like they know...
(Fig 3)
Guitar 1
-----------------------------|-------------------------------|
-----------------------------|-------------------------------|
-----------------------------|-------------------------------|
-----------------------------|-------------------------------|
-----------------------------|-------------------------------|
*2RB* *2RB*-*2RB* *2RB*------|-*2BR*--*2BR*--*2BR*--*2BR*----|


Guitar 2

----------------------------------|
----------------------------------|
----------------------------------|
-5---3---2--0---------------------|
-5---3---2--0---------------------|
-5---3---2--0---------------------|

You can't take my soul away from me!

-----------------------------|
-----------------------------|
-----------------------------|
-5-5-5-5-5-5-5-5-5-5-5-5-5---|
-----------------------------|
-----------------------------|


What do you need to see? you feel the impact? gotta retract everybody get back!
What is this? it's like a great conspiracy fields of dejected, morbid progeny

---------------------------------------|
---------------------------------------|
---------------------------------------|
-2-1-0---0-2-0-3-0-4-------------------|
-2-1-0---0-2-0-3-0-4-------------------|
-2-1-0---0-2-0-3-0-4-------------------|
P.M.................

Man its the same whether u talk or u blame....
---------------------------------------|
---------------------------------------|
---------------------------------------|
-2-1-0---0-2-0-3-0-4-------------------|
-2-1-0---0-2-0-3-0-4-------------------|
-2-1-0---0-2-0-3-0-4-------------------|
        P.M.........


play Fig 3

you cant take my soul away from me.....
you cant take my soul away from me......
-----------------------------------------------------|
-----------------------------------------------------|
-----------------------------------------------------|
-----------------------------------------------------|
-----------------------------------------------------|
-2-1-0-4-5-4-0-*2BR*---------------------------------|


YOU CANT TAKE MY SOUL AWAY FROM ME
---------------------------------|
---------------------------------|
---------------------------------|
-2-1-0-4-5-4---0-5-6-------------|
-2-1-0-4-5-4---0-5-6-------------|
-2-1-0-4-5-4---0-5-6-------------|

keep it metal..
Tap to rate this tab
# A B C D E F G H I J K L M N O P Q R S T U V W X Y Z