Guitaretab - guitar tabs
Song name
# A B C D E F G H I J K L M N O P Q R S T U V W X Y Z

Slipknot - Skin Ticket tab

Skin Ticket-Slipknot
Iowa

Drop A
A E A D F# B

Riff A w/ overdubbed pick scrapes, slides, and sampling

e-----------------------------------------------------------------
b-----------------------------------------------------------------
g----15--15-15-15-15-14---14--14--------15-15-15-15-14---14-15-14-
d-----------------------------------------------------------------
a----13--13-13-13-13-12---12~~12~~~~----13-13-13-13-12---12-13-12-
d-0---------------------0-----------0------------------0----------

e-----------------------------------------------------------------
b-----------------------------------------------------------------
g----15--15-15-15-15-14----------8------15-15-15-14-12---14-15-14-
d-----------------------------------------------------------------
a----13--13-13-13-13-12----------6------13-13-13-12-10---12-13-12-
d-0---------------------0-0---------0-----------------------------

Riff B

e10-101010-101010-101010-101010-101010-101010-101010-101010-1010--
b-x--x-x-x--x-x-x--x-x-x--x-x-x--x-x-x--x-x-x--x-x-x--x-x-x--x-x--
g-7--7-7-7--7-7-7--7-7-7--7-7-7--7-7-7--7-7-7--7-7-7--7-7-7--7-7--
d-----------------------------------------------------------------
a-----------------------------------------------------------------
d-----------------------------------------------------------------

Riff C

e-----------------------------------------------------------------
b-----------------------------------------------------------------
g-----------------------------------------------------------------
d-----------------------------------------------------------------
a-----------------------------------------------------------------
d-0-2---0--0-1-2-0-0-2---0-2---0--0-1-2-0---0-2-------------------

Riff D let ring

e-----------------------------------------------------------------
b-----------------------------------------------------------------
g-----------------------------------------------------------------
d-----------------------------------------------------------------
a-----------------------------------------------------------------
d-0---------------------------------------------------------------

Verses Riff D
Bride ...come see my cage...

e-----------------------------------------------------------------
b-----------------------------------------------------------------
g-----------------------------------------------------------------
d-----------------------------------------------------------------
a-----------------------------------------------------------------
d-0-0-0-0-8-8-8-8-7-5-7-7-7-7-7-7-0-0-0-0-8-8-8-8-7-5-7-7-7-0-0-0-

Chorus: Fig 2   ...keeping my self alive...

e-----------------------------------------------------------------
b-----------------------------------------------------------------
g-----------------------------------------------------------------
d-----------------------------------------------------------------
a-0-1---0--0-1----0-0-1---0-1---0--0-1----0-0-1-------------------
d-0-1---0--0-1----0-0-1---0-1---0--0-1----0-0-1-------------------

Fig 3.
[ Tab from: http://www.guitaretab.com/s/slipknot/29272.html ]
e-----------------------------------------------------------------
b-----------------------------------------------------------------
g-----------------------------------------------------------------
d-----------3-4-3-----------3-4-3-----------3-4-3-----------3-4-3-
a-0-0-0-1-0-------0-0-0-1-0-------0-0-0-1-0-------0-0-0-1-0-------
d-0-0-0-1-0-------0-0-0-1-0-------0-0-0-1-0-------0-0-0-1-0-------

Guitar solo  oh my god, slipknot with g uitar solo, unheard of....

e-----------------------------------------------------------------
b-----------------------------------------------------------------
g-1414141414141414 14141414 15151515 1414141414141414 14141414 13-
d-----------------------------------------------------------------
a-1212121212121212-12121212-13131313-1212121212121212-12121212-11-
d-----------------------------------------------------------------

e-----------------------------------------------------------------
b-----------------------------------------------------------------
g-1414141414141414 14141414141414 15 17171717 15151515 1414141414-
d-----------------------------------------------------------------
a-1212121212121212-12121212121212-13-15151515-13131313-1212121212-
d-----------------------------------------------------------------

Interlude:

e-----------------------------------------------------------------
b-----------------------------------------------------------------
g-----------------------------------------------------------------
d-----------3-4-3-----------3-4-3---------3-4-3---------3-4-3-----
a-0-3-0-1-0-3-4-3-0-3-0-1-0-3-4-3-0-3-1-0-3-4-3-0-3-1-0-3-4-3-----
d-0-3-0-1-0-------0-3-0-1-0-------0-3-1-0-------0-3-1-0-----------

Outro:

e-----------------------------------------------------------------
b-----------------------------------------------------------------
g-----------------------------------------------------------------
d-0-0-0-0----0-0-0-0----0-0-0-0----0-0-0-0----0-0-0-0----0-0-0-0--
a-0-0-0-0----0-0-0-0----0-0-0-0----0-0-0-0----0-0-0-0----0-0-0-0--
d-0-0-0-0----0-0-0-0----0-0-0-0----0-0-0-0----0-0-0-0----0-0-0-0--

e-----------------------------------------------------------------
b-----------------------------------------------------------------
g---------7-7-7-7---------7-7-7-7---------7-7-7-7---------7-7-7-7-
d-0-0-0-0-7-7-7-7-0-0-0-0-7-7-7-7-0-0-0-0-7-7-7-7-0-0-0-0-7-7-7-7-
a-0-0-0-0-5-5-5-5-0-0-0-0-5-5-5-5-0-0-0-0-5-5-5-5-0-0-0-0-5-5-5-5-
d-0-0-0-0---------0-0-0-0---------0-0-0-0---------0-0-0-0---------

e-----------------------------------------------------------------
b-----------------------------------------------------------------
g-----------------------------------------------------------------
d-----------------------------------------------------------------
a-0-0-0-0----------0-0-0-0-0-0-------0-0-0-0----------0-0-0-0-0-0-
d-0-0-0-0-1b-------0-0-0-0-0-0-------0-0-0-0-1b-------0-0-0-0-0-0-

till fade

e-----------------------------------------------------------------
b-----------------------------------------------------------------
g-------7---7--------------7---7--------------7---7---------------
d-0--0--7---7------x-0--0--7---7------x-0--0--7---7------x--------
a-0--0--5---5------x-0--0--5---5------x-0--0--5---5------x--------
d-0--0-------------x-0--0-------------x-0--0-------------x--------

thatís all, ya just have to piece the riffs together

trevor jones 
timmy91199@yahoo.ca
Related for Skin Ticket tab