Guitaretab - guitar tabs
Song name
# A B C D E F G H I J K L M N O P Q R S T U V W X Y Z

Slipknot - Tattered And Torn tab

Tattered and Torn-Slipknot
Slipknot

Drop B
B F# B E G# C#

Riff A
w/ heavy reverb and digi-tech whammy pedal set up one octave

e-18p17h18-------------17h18p17h18--------------------
b----------19h20p19h20-------------16h17p16h17p16-----
g-----------------------------------------------------
d-----------------------------------------------------
a-----------------------------------------------------
d-----------------------------------------------------

Verses dive w/ whammy pedal
[ Tab from: http://www.guitaretab.com/s/slipknot/29442.html ]
e-18---------(14)----------18------------(14)---------
b-----------------------------------------------------
g-----------------------------------------------------
d-----------------------------------------------------
a-----------------------------------------------------
d-----------------------------------------------------

Outro:

e---------------------------------------------------------
b---------------------------------------------------------
g---------------------------------------------------------
d---------------------------------------------------------
a-0-0--0-1p0--0-3p0--0-1p0-4--0-0--0-1p0--0-3p0--0-1p0-4--
d-0-0--0-1p0--0-3p0--0-1p0-4--0-0--0-1p0--0-3p0--0-1p0-4--

e--------------------------------------------------------------
b--------------------------------------------------------------
g--------------------------------------------------------------
d--------------------------------------------------------------
a-0-0-0-0-1p0-0-0-3p0-0-0-1p0-4-0-0-0-0-1p0-0-0-3p0-0-0-1p0-4--
d-0-0-0-0-1p0-0-0-3p0-0-0-1p0-4-0-0-0-0-1p0-0-0-3p0-0-0-1p0-4--

thatís all

trevor jones
timmy91199@yahoo.ca
Related for Tattered And Torn tab