Song name
# A B C D E F G H I J K L M N O P Q R S T U V W X Y Z

Slipknot - Me Inside tab

Drop D (Down 1 1/2 Steps) 
B F# B E G# C#

h - hammer on 
p - pull off 
/ - slide up
- - palm mute

Riff 1 
----------|
-7v-------|
----------|
----------|
----------|
----------|
Use wah-wah                                                                  

Riff 2
------------------|
------------------|
------------------|
------------------|
------------------|
-0-0-1p0--0-0-1p0-|
 - -      - -                                                                 

Riff 3
---------------------------|
---------------------------|
---------------------------|
---------------------------|
-1p0-1p0--0-0-1p0-1p0--0-0-|
-1p0-1p0--0-0-1p0-1p0--0-0-|
            -            -                                                  


Riff 4
-19p15----17-15-14-|-------------20-|
-------17----------|-15h17-15h18----|
-------------------|----------------|
-------------------|----------------|
-------------------|----------------|
-------------------|----------------|

                                                                              
Riff 5 (Verse)
----16-------15---------17-|
-------15-------14-------x-|
-14----------------13---15-|
---------------------------|
---------------------------|
---------------------------|
Use wah-wah and/or flanger                                                   

Riff 6
-----------------|
-----------------|
-----------------|
-----------------|
-1-1-1-1-7-7-7-7-|
-1-1-1-1-7-7-7-7-|
    
                                                                          
Riff 7 (Chorus)
---------------------|-----------------|
---------------------|-----------------|
---------------------|-5/7-7-7-7/8-8-8-|
---------------------|-x---x-x-x-x-x-x-|
-0--6-5-3-1-1h3-1--0-|-3/5-5-5-5/6-6-6-|
-0--6-5-3-1-1h3-1--0-|-----------------|
                                                                              

Riff 8
------------------------------------------|
------------------------------------------|
------------------------------------------|
------------------------------------------|
-0-0-1p0--0-0-0-1p0--0-0-0-1p0--0-0-0-1p0-|
-0-0-1p0--0-0-0-1p0--0-0-0-1p0--0-0-0-1p0-|
      
                                                                        
Riff 9
--------------------------|--------------------------|
--------------------------|--------------------------|
--------------------------|--------------------------|
--------------------------|--------------------------|
-0-0-0-0-0-1--0-0-0-0-0-1-|-0-0-0-0-0-1--0-0-0-0-0-1-|
-0-0-0-0-0-1--0-0-0-0-0-1-|-0-0-0-0-0-1--0-0-0-0-0-1-|
                 
                                                             
Song Structure : Riff 1
                 Riff 1 and 2
                 Riff 3
                 Riff 4
                 Riff 5
                 Riff 6 
                 Riff 4
                 Riff 5
                 Riff 6
                 Riff 7
                 Riff 8
                 Riff 3
                 Riff 8
                 Riff 3
                 Riff 7
                 Riff 8 
                 Riff 9
Tap to rate this tab
# A B C D E F G H I J K L M N O P Q R S T U V W X Y Z