Song name
# A B C D E F G H I J K L M N O P Q R S T U V W X Y Z

Slipknot - Liberate tab

Tabbed by: Cameron
Email: Ditt0_the_Alien117@yahoo.com

tuning: B F# B E G# C#

PM= palm mute
~ = vibrato
b = bend
x = muted strings

intro
part 1:
|-------------------------------|
|-------------------------------|
|-------------------------------|
|-------------------------------|
|-6-----------------------------|
|----0--0-0-0--0-0-0-0--0-0-0-0-|

part 2:
|-----|
|-----|
|-----|
|-----|
|-1-0-|
|-1-0-|

riff 1:
|-----------------------|
|-----------------------|
|-----------------------|
|-----------------------| 
|-1--0-0--0-0-0--0-0-0--|
|-1--0-0--0-0-0--0-0-0--|
    |________PM________|

|-------------------------------|
|-------------------------------|
|-------------------------------|
|-------------------------------|
|-1-0-----------4-4-4-4---------|
|-1-0--4-4-4-4----------4-4-4-4-|
      |______tremolo pick______|

riff 3
part 1:
|---------------------------------|
|---------------------------------|
|---------------------------------|
|---------------------------------|
|-1-0--------0-1-0-4-3-1----------|
|-1-0--------0-1-0-4-3-1--5~~~~~~-|

part 2:
|---------------------------------|
|---------------------------------|
|---------------------------------|
|---------------------------------|
|-1-0--------0-1-0-4-3-1--3---3---|
|-1-0--------0-1-0-4-3-1--3---3---|

riff 4:
|----------------------------------|
|----------------------------------|
|----------------------------------|
|----------------------------------|
|-1-0---0---0---0-1-0-4-3----------|
|-1-0---0---0---0-1-0-4-3--5~~~~~~-|

riff 5:
|--------------------------------------------------------------|
|--------------------------------------------------------------|
|--------------------------------------------------------------|
|--------------------------------------------------------------|
|--------------------------------------------------------------|
|-0--0--0-0-0--0-0-0-0--0-0-0-0--0--0--0-0-0--0-0-0-0--0-0-0-0-|

riff 6
part 1:
|-------------------------|
|-------------------------|
|-------------------------|
|-------------------------|
|-0-1---0-1---0-1---0-1---|
|-0-1---0-1---0-1---0-1---|

part 2:
|-------------------------------------------|
|-------------------------------------------|
|-------------------------------------------|
|-------------------------------------------|
|-5-----5-----5-----5-----5------5-----5----|
|---1-----1-----1-----1-----1-----1-----1---|

part 3:
|-------------------------|
|-------------------------|
|-------------------------|
|-------------------------|
|-------------------------|
|-0-1---0-1---0-1---0-1---|

part 4:
|-------------------------|
|-------------------------|
|-------------------------|
|-4--5--4--5--4--5--4--5--|
|-5--6--5--6--5--6--5--6--|
|-------------------------|


riff 7
guitar 1
part 1:
|------------------------|
|------------------------|
|------------------------|
|------------------------|
|-9--0-0--0--0--1--1--0--|
|-9--0-0--0--0--1--1--0--|

part 2:
|----------------------|
|----------------------|
|----------------------|
|----------------------|
|-9-0-0--0--0--0-------|
|-9-0-0--0--0--0-5b----|

guitar 2:
|-------------------------|
|-0-----------0-----------|
|-3~----------3b----------|
|-------------------------|
|-------------------------|
|-------------------------|

riff 8:
|-------------------------------------------|
|-------------------------------------------|
|-------------------------------------------|
|-------------------------------------------|
|-2--2--2--1--1--1--1--0--0--0--1--1--1--1--|
|-2--2--2--1--1--1--1--0--0--0--1--1--1--1--|

part 2:
|-------------------------------------------|
|-------------------------------------------|
|-------------------------------------------|
|-------------------------------------------|
|-2--2--2--1--x--x--x--0--0--0--1--x--x--x--|
|-2--2--2--1--x--x--x--0--0--0--1--x--x--x--|

outro:
|---------------------------------|
|---------------------------------|
|---------------------------------|
|---------------------------------|
|-2--2--2--1--x--x--x--0--0--0--1-|
|-2--2--2--1--x--x--x--0--0--0--1-|
Tap to rate this tab
 
# A B C D E F G H I J K L M N O P Q R S T U V W X Y Z