Song name
# A B C D E F G H I J K L M N O P Q R S T U V W X Y Z

Slipknot - Vermilion Part 2 Acoustic tab

Vermilion PT.2 - Slipknot   by dilie1992

STANDARD TUNING E A D G B e

E|---------------------------------------------------|
B|---------------------------------------------------|
G|---------------------------------------------------|
D|-6-6-6-8-8-8---------------------------------------|
A|-6-6-6-8-8-8-7-7-7-6-6-6-6-7----6---6--------------|
E|-4-4-4-4-4-4-4-4-4-4-4-4-4-4----4---4--------------|
   D D D D D D D D D D D D D D    D   D

E|---------------------------------------------------|
B|---------------------------------------------------|
G|--4-4-4-4-4-4-4-4-4-4-4-4-4-4-4-4------------------|
D|--4-4-4-4-4-4-4-4-4-4-4-4-4-4-4-4------------------|
A|--2-2-2-2-2-2-2-2-1-1-1-1-1-1-1-1------------------|
E|---------------------------------------------------|
    D U D U D U D U D U D U D U D U

now strum A chord

A    D D U U D   D U D U D    D U D U D    D U D U D

E|---------------------------------------------------|
B|---------------------------------------------------|
G|--4-4-4-4-4----4-4-4-4-4--4-4----------------------|
D|--4-3-3-3-3----3-3-3-3-3--3-3----------------------|
A|--2-2-2-2-2----2-2-2-2-2--2-2----------------------|
E|---------------------------------------------------|
    D D U D U    D D U D U  D U



other chord
GM7 F# Bm11 D5(6/9)
2   2    0    0
0   2    3    0
0   3    4    7
0   4    4    7
x   4    2    5
3   2    x    x


        G7M            F#         Bm11      D5(6/9)
 But I won't let this build up inside of me     (3x)      arpeggio
        G7M            F#         Bm11
 But I won't let this build up inside of me

E|---------------------------------------------------|
B|----3---3------3---3------3---3------3---3---------|
G|------6---6------6---6------6---6------6---6-------|   (3x)
D|--5----------4---------------------0---------------|
A|------------------------2--------------------------|
E|---------------------------------------------------|

E|---------------------------------------------------|
B|----3---3------3---3------3---3--------------------|
G|------6---6------6---6------6---6------------------|
D|--5----------4-------------------------------------|
A|------------------------2--------------------------|
E|---------------------------------------------------|
Tap to rate this tab
# A B C D E F G H I J K L M N O P Q R S T U V W X Y Z