Song name
# A B C D E F G H I J K L M N O P Q R S T U V W X Y Z

Slipknot - Purity tab

  
Slipknot
“purity” (LIVE)

tabbed by- Tripp Taylor 

Tuning: B F# B E G# C#

PM= palm mute
b = bend
r = release
x = muted string
/ = slide

intro:
|------------------------------------------------------------------|
|------------------------------------------------------------------|
|------------------------------------------------------------------|
|-----------------------------------------------------------3b-----|
|-0-3-0-1-0-0-1-0-0-3-0-1-0-0-1-0-0-3-0-1-0-0-1-0-0-3-0-1----------|
|-0-3-0-1-0-0-1-0-0-3-0-1-0-0-1-0-0-3-0-1-0-0-1-0-0-3-0-1----------|
 |___________________________PM__________________________|

riff 1:
|---------------------------------|
|---------------------------------|
|---------------------------------|
|---------------------------------|
|---------------------------------|
|-0-3-0-1-0-0-1-0-0-3-0-1-0-0-1-0-|

riff 2:
|-----------------|
|-----------------|
|-----------------|
|-----------------|
|-----------------|
|-0-3-0-1-0-0-1-0-|

riff 3:
|-----------------------------------------|
|-----------------------------------------|
|-----------------------------------------|
|-----------------------------------------|
|---3---1----x-x--------3---1----x-x------|
|-0-3-0-1-0—-x-x--1-0-0-3-0-1-0—-x-x--1-0-|  

riff 4:
|--------------------------|
|--------------------------|
|--------------------------|
|--------------------------|
|-4---4---4----0---0---7---|
|-4---4---4----0---0---7---| 

riff 5:
|------------------|
|------------------|
|-7----------------|
|-x----------------|
|-5----------------|
|-0----------------|

riff 6
part 1:
|------------------------|
|------------------------|
|------------------------|
|------------------------|
|------------------------|
|-1/4---0--0-1/4---0—-0--| 
       |_PM_|     |_PM_|     


part 2:
|------------------------|
|------------------------|
|------------------------|
|------------------------|
|-1/4--------1/4---------|
|-1/4---0--0-1/4---0—-0--|
       |_PM_|     |_PM_|

outro:
|---------------------------------|
|---------------------------------|
|---------------------------------|
|---------------------------------|
|---------------------------------|
|-0-3-0-1-0-0-1-0-0-3-0-1-0-0-1-0-|

|---------------------------------|
|---------------------------------|
|---------------------------------|
|---------------------------------|
|-0-3-0-1-0-0-1-0-0-3-0-1-0-0-1-0-|
|-0-3-0-1-0-0-1-0-0-3-0-1-0-0-1-0-|
Tap to rate this tab
# A B C D E F G H I J K L M N O P Q R S T U V W X Y Z