Song name
# A B C D E F G H I J K L M N O P Q R S T U V W X Y Z

Slipknot - Get This tab

-------------------------------------------------------------------------------
			     Get This - SlipKnot
-------------------------------------------------------------------------------
Tabbed by:Schmidt
Email:golden_grams81@hotmail.com

Tuning:Drop B

Guitar 1:Mick Thompson
Guitar 2:James Root

THis is for all u maggots out there lookin how to play get this well read this tab and rock the hell out

Riff 1-Guitar 1 (During and after Corey's scream)
c#|----------------------------------------------------------|
G#|----------------------------------------------------------|
E|-----------------------------------------------------------|
B|---------------------------------------------------------0-|
f#|--------------------------------------------------------0-|
B|---0--1--4--0--1--4--0--1--4--0--1--4--0--1--4--0--1--4--0-|

Guitar 2
c#|-----------------------------------------------------------|
G#|-----------------------------------------------------------|
E|------|--\----|>>>>---/---\--->>><<<------------------------|
B|------|--/----|-------\>>>-------|------------------------0-|
f#|-----|--\----|>>>>-------/------|------------------------0-|
B|------|---\---|>>>>---\<<
Tap to rate this tab
# A B C D E F G H I J K L M N O P Q R S T U V W X Y Z