Song name
# A B C D E F G H I J K L M N O P Q R S T U V W X Y Z

Slipknot - Gently tab

-----------------------------------------------------------------------------
                             Slipknot - Gently
-----------------------------------------------------------------------------
Tabbed by:Metalcoreking
Email:Matthessell@live.com

Tuning:CGCFAD

ACOUSTIC I
D|---------1p0--------------0-----------------------------------------------|
A|-----3-------3--------3-----3---3-----------------------------------------|
F|---2---2-------2----3---3-----3--------3---3---3---3---2------------------|
C|-0-----------------------------------2------------------------------------|
G|------------------1----------------0-----0---0---0---0---0----------------|
C|--------------------------------------------------------------------------|
 |                                                                          |
D|---------4h5--------8p6-------6-------------------------------------------|
A|---5h6-------6----------6---6---6-----------------------------------------|
F|---------------7----------7------------3---3---3---3---2------------------|
C|-0-----0----------0------------------2------------------------------------|
G|-----------------------------------0-----0---0---0---0---0----------------|
C|--------------------------------------------------------------------------|
 
2ND TIME
D|---------1p0--------------0-----------------------------------------------|
A|-----3-------3--------3-----3---3-----------------------------------------|
F|---2---2-------2----3---3-----3--------3---3---3---3---2------------------|
C|-0-----------------------------------2------------------------------------|
G|------------------1----------------0-----0---0---0---0---0----------------|
C|--------------------------------------------------------------------------|
 |                                                                          |
D|---------4h5--------8-6h8p6-------6---------------------------------------|
A|---5h6-------6--------------6---6---6-------------------------------------|
F|---------------7--------------7------------3---3---3---3---2--------------|
C|-0-----0----------0----------------------2--------------------------------|
G|---------------------------------------0-----0---0---0---0---0------------|
C|--------------------------------------------------------------------------|

ACOUSTIC I X2

ACOUSTIC II
D|---------1-0---0----------3----------------0----------0--------0------(x4)|
A|-----3-------3--------1-----1---1------1-----1---3------3--------3--------|
F|---2---2------------2---2-----2------0---0-----0----------0--------0------|
C|-0----------------3-------------------------------------------------------|
G|-----------------------------------3----------------1--------3------------|
C|--------------------------------------------------------------------------|

BREAKDOWN
D|--------------------------------------------------------------------------|
A|--------------------------------------------------------------------------|
F|--------------------------------------------------------------------------|
C|-0------------------------------------------------------------------------|
G|-0------------------------------------------------------------------------|
C|-0------------------------------------------------------------------------|

RIFF I
D|----------------------------------------------------------------------(x2)|
A|--------------------------------------------------------------------------|
F|--------------------------------------------------------------------------|
C|-0--8---------7-----------------------------------------------------------|
G|-0--8---------7-----------------------------------------------------------|
C|-0--8--8-8--8-7-----------------------------------------------------------|

RIFF II
D|--------------------------------------------------------------------------|
A|--------------------------------------------------------------------------|
F|--------------------------------------------------------------------------|
C|-0-----0-------8-------8-------8-7-----7-----7-----7---7------------------|
G|-0-----0-------8-------8-------8-7-----7-----7-----7---7------------------|
C|-0-0-0-0-0-0-0-8-8-8-8-8-8-8-8-8-7-7-7-7-7-7-7-7-7-7-7-7-7-7-7------------|
 |                                                                          |
D|----------------------------------------------------------------------(x2)|
A|--------------------------------------------------------------------------|
F|--------------------------------------------------------------------------|
C|-1-----1-------9-10--5-4-7------------------------------------------------|
G|-1-----1-------9-10--5-4-7-8-4--------------------------------------------|
C|-1-1-1-1-1-1-1-9-10--5-4-7-----7-8-1--------------------------------------|

SOLO
D|--------------------------------------------------------------------------|
A|--------------------------------------------------------------------------|
F|--------------------------------------------------------------------------|
C|--------------------------------------------------------------------------|
G|-5-5--/8-8-8---8\7--3-----------------------------------------------------|
C|--------------------------------------------------------------------------|
 |                                                                          |
D|--------------------------------------------------------------------------|
A|--------------------------------------------------------------------------|
F|--------------------------------------------------------------------------|
C|--------------------------------------------------------------------------|
G|-8-8-8-/12-12-12--12\10--7--/12-12-12-/15-15-15--15\14--------------------|
C|--------------------------------------------------------------------------|

RIFF II

RIFF III
D|---------------------------------------------------------------------(x12)|
A|--------------------------------------------------------------------------|
F|--------------------------------------------------------------------------|
C|-0-------3---4-3-1-----0--------------------------------------------------|
G|-0-------3---4-3-1-----0--------------------------------------------------|
C|-0-0-1-0-3-0-4-3-1-0-0-0--------------------------------------------------|

RIFF IIII
D|-----(x8)|----------------------------------------------------------------|
A|---------|----------------------------------------------------------------|
F|---------|----------------------------------------------------------------|
C|-------3-|-----0----------------------------------------------------------|
G|-------3-|-----0----------------------------------------------------------|
C|-0-1-0-3-|-0-0-0----------------------------------------------------------|

RIFF III 

************************************

| /   slide up
| \   slide down
| h   hammer-on
| p   pull-off
| ~   vibrato
| +   harmonic
| x   Mute note
| b   Bend
| pb  Pre-bend
| br  Bend release
| pbr Pre-bend release
| brb Bend release bend

************************************
Tap to rate this tab
 
# A B C D E F G H I J K L M N O P Q R S T U V W X Y Z