Song name
# A B C D E F G H I J K L M N O P Q R S T U V W X Y Z

Slipknot - Scream tab

Tabbed by Hyks97 17/4/2013


Artist: Slipknot
Album: Vol. 3 (The subliminal verses)
Song: Scream


Tuning: Drop B
B, F#, B, E, G#, C#


Intro
||-------------------|-------------------||
||-------------------|-------------------||
||-------------------|-------------------||
||-------------------|-------------------|| x8
||-3-2-5"-6"-3-2-3-4-|-3-2-5"-6"-7-6-7-8-||
||-3-2-------3-2-3-4-|-3-2-------7-6-7-8-||
   . .       . . .     . .       . . . 

SCREAM!
                            3x      4.
||-------------------------|-------|-------||
||-------------------------|-------|-------||
||-------------------------|-------|-------||
||-------------------------|-------|-------|| x2
||-------------------------|-------|-3~~3~~||
||-0-0-6-0~~-0-6-0---0-6-0-|--0-6--|-3~~3~~||


 
Verse        3x                              4.
||----------|-------------------------------|---------------||
||----------|-------------------------------|---------------||
||----------|-------------------------------|---------------||
||----------|-------------------------------|---------------|| PM the first
||----------|-------------------------------|---------3~~6~~|| 4 times
||-3-0-0-0--|--0-0-0-0---0-3-6-0-3-0-0-0----|-0-3-6-0-3~~6~~||
   ^^^^^^^ only play that the first time of every playthrough


Pre-chorus
||---------------------------------------------||
||---------------------------------------------||
||---------------------------------------------||
||--------------------------------------8-8-8~~|| x4
||--------------------------------3-3~~-6-6-6~~||
||-0-0-6-0~~-0-6-0---0-6-0---0-6--3-3~~-6-6-6~~||



Pre-verse    x3                              4.
||----------|-------------------------------|---------------||
||----------|-------------------------------|---------------||
||----------|-------------------------------|---------------||
||----------|-------------------------------|---------------||
||----------|-------------------------------|---------------||
||-3-0-0-0--|--0-0-0-0---0-3-6-0-3-0-0-0----|-0-0-0-0-------||



Verse        3x                              4.
||----------|-------------------------------|---------------||
||----------|-------------------------------|---------------||
||----------|-------------------------------|---------------||
||----------|-------------------------------|---------------|| PM the first
||----------|-------------------------------|---------3~~6~~|| 4 times
||-3-0-0-0--|--0-0-0-0---0-3-6-0-3-0-0-0----|-0-3-6-0-3~~6~~||
   ^^^^^^^ only play that the first time of every playthrough


Pre-chorus
||---------------------------------------------||
||---------------------------------------------||
||---------------------------------------------||
||--------------------------------------8-8-8~~|| x4
||--------------------------------3-3~~~6-6-6~~||
||-0-0-6-0~~-0-6-0---0-6-0---0-6--3-3~~~6-6-6~~||


Chorus
||----------------------||
||----------------------||
||----------------------||
||-5--5--5--------------|| x8
||-3--3--3--3~~~2~~~0~~~||
||----------3~~~2~~~0~~~||


Bridge
||-------------------------|------------------------||
||----5-----5--6--3--5--1--|----5-----5--3----------||
||-2-----2-----------------|-1-----1--------5--4----||
||-------------------------|----------------------6-|| x8
||-------------------------|------------------------||
||-------------------------|------------------------||

||---------------------------------|---------------------------------||
||-----17"-----17"-18"-15"-17"-13"-|-----17"-----17"-15"-------------||
||-14"-----14"---------------------|-13"-----13"---------17"-16"-----||
||---------------------------------|-----------------------------18"-||
||---------------------------------|---------------------------------||
||---------------------------------|---------------------------------||


Transition
||-------------------|-------------------||
||-------------------|-------------------||
||-------------------|-------------------||
||-------------------|-------------------|| x3
||-3-2-5"-6"-3-2-3-4-|-3-2-5"-6"-7-6-7-8-||
||-3-2-------3-2-3-4-|-3-2-------7-6-7-8-||
   . .       . . .     . .       . . . 

||-------------------|--------------------------||
||-------------------|--------------------------||
||-------------------|--------------------------||
||-------------------|--------------------------||
||-3-2-5"-6"-3-2-3-4-|-3-2-5"-6"-7-6-7-8~~~~~~~-||
||-3-2-------3-2-3-4-|-3-2-------7-6-7-8~~~~~~~-||
   . .       . . .     . .       . . . 


Chorus
||----------------------||
||----------------------||
||----------------------||
||-5--5--5--------------|| x8
||-3--3--3--3~~~2~~~0~~~||
||----------3~~~2~~~0~~~||


Outro        3x                              4.
||----------|-------------------------------|---------------||
||----------|-------------------------------|---------------||
||----------|-------------------------------|---------------||
||----------|-------------------------------|---------------|| x1
||----------|-------------------------------|---------3--6--||
||-3-0-0-0--|--0-0-0-0---0-3-6-0-3-0-0-0----|-0-3-6-0-3--6--||
   ^^^^^^^ only play that the first time of every playthrough

||---------------------------------||
||---------------------------------||
||---------------------------------||
||---------------------------------|| x4
||-----------------------3~~~-6~~~-||
||-3-0-0-0---0-0-3-6-0-0-3~~~-6~~~-||


That's all, if anybody has any questions, leave a comment down below! :)
Tap to rate this tab
# A B C D E F G H I J K L M N O P Q R S T U V W X Y Z