Song name
# A B C D E F G H I J K L M N O P Q R S T U V W X Y Z

Slipknot - I Am Hatred tab

Slipknot - I Am Hatred
Drop-B Tuning

MAIN RIFF

C#------------------------
G#------------------------
E-------------------------
B--0-0-0--5-6---0-0-0--5-6
F#-0-0-0--5-6---0-0-0--5-6
B--0-0-0--5-6---0-0-0--5-6
PM - - - - - - - - - -

VERSE

C#--------------------
G#--------------------
E---------------------
B--2-0--6-0---2-0--6-0
F#-2-0--6-0---2-0--6-0
B--2-0--6-0---2-0--6-0 

CHORUS

C#-------------
G#-------------
E--------------
B--1-0--6-0-6-0
F#-1-0--6-0-6-0
B--1-0--6-0-6-0 

INTERLUDE

C#-------------3
G#--------------
E---------------
B--0---3-6-0----
F#-0---3-6-0---3
B--0---3-6-0----
Tap to rate this tab
# A B C D E F G H I J K L M N O P Q R S T U V W X Y Z