Song name
# A B C D E F G H I J K L M N O P Q R S T U V W X Y Z

Slipknot - The Nameless tab

by SlipKnot from 'Vol. 3: The Subliminal Verses'

Tabbed by Liam Jemmeson [p.l.u.c.k.01@hotmail.com]

Symbols:

>  ~ = Let Ring
>  / = Slide Up
>  \ = Slide Down
>  x = Scratch Strings (Or pm, whatever sounds right)
> pm = Palm Mute betweew lines (|--|) and where single lines are (|)
>  : = Mute note
>  h = Hammer-on
>  p = Pull off
>  b = Bend
>  r = Release bend/whammy
>(#) = Bend [b(#)] or wammy [w(#)] to sound like bracketed note
> w/ = Whammy bar up
> w\ = Whammy bar down
>{*} = Feedback

There are two guitars playing in this song, Mick and Jim, but their parts are mostly 
so i just tabbed it for both guitars. The differences are pointed out. If you disagree with 
intros, watch this: www.youtube.com/watch?v=E-xTUTz8l3I

Now the intro probably doesnt look quite right to you, but just check out that youtube 
If youre still not sure, dose up on fuzz and distortion, turn up your amp and PLAY IT.

   |Intro Pt I - x2 Distorted [00:00]   Second Guitar plays a 1**
C# |------------------------------------/-----------------------------|
G# |-----------------------------------/------------------------------|
E  |----------------------------------/-------------------------------|
B  |----2-2----3-3-3-3-3-3--2-2----5-7----3-3-3-3-3-3--2-2------------|
F# |------------------------------------------------------------------|
B  |------------------------------------------------------------------|
PM      |-|    |--------------|    |-|    |--------------|

   |Intro Pt II [00:08]
C# |------------------------------------------------------------------|
G# |------------------------------------------------------------------|
E  |------------------------------------------------------------------|
B  |----2-2----3-3-3-3-3-3--2-2---5p1--1-1-1-1-1-1-1-1-1-1-1-1-1------|
F# |-----------------------------------1-1-1-1-1-1-1-1-1-1-1-1-1------|
B  |-----------------------------------1-1-1-1-1-1-1-1-1-1-1-1-1------|
PM      |-|    |--------------|        |-----------------------|

   |Intro Pt III [00:13]
C# |------------------------------------------------------------------|
G# |------------------------------------------------------------------|
E  |---4---------------------------------4----------------------------|
B  |---4---------------------------------4----------------------------|
F# |---2--3-0-2-0-0-0-0-0-0--6p5--6p5p0--2--3-0-2-0-0-0-0-0-0---------|
B  |------3-0-2-0-0-0-0-0-0--6p5--6p5p0-----3-0-2-0-0-0-0-0-0---------|
PM                |-------|                         |-------|

   |Intro Pt IV [00:16]
C# |---------------------------|
G# |---------------------------|
E  |-----------3-4-------------|
B  |-----------3-4-------------|
F# |--0-2-3-4--1-2--3p2p0------|
B  |--0-2-3-4-------3p2p0------|


   |Intro Pt V - This bit very fast [00:18]
C# |----------------------------------------------------------------|
G# |----------------------------------------------------------------|
E  |----------------------------------------------------------------|
B  |----------------------------------------------------------------|
F# |---2h5p2h5--3h6p3h6--4h7p4h7--3h6p3h6--4h7p4h7--5h8p5h8---------|
B  |----------------------------------------------------------------|


   |Intro Pt VI [00:20]                |2nd ending
C# |-----------------------------------|---|
G# |-----------------------------------|---|
E  |--4-----------4-3------------------|---|
B  |--4-----------4-3------------------|---|
F# |--2--3-0-2-0--2-1--3-2-0-2-3-4-3-2-|-0-|  Now repeat once from
B  |-----3-0-2-0-------3-2-0-2-3-4-3-2-|-0-|   Intro Pt I to Pt VI

   |Verse Pt I - x3 [00:31]
C# |------------------------------------------------------------------|
G# |------------------------------------------------------------------|
E  |------------------------------------------------------------------|
B  |------------------------------------------------------------------|
F# |----2-2----3-3-3-3-3-3--2-2----5-1----3-3-3-3-3-3--2-2------------|
B  |----2-2----3-3-3-3-3-3--2-2----5-1----3-3-3-3-3-3--2-2------------|
PM      |-|    |--------------|    |-|    |--------------|

   |Verse Pt II [00:44]
C# |------------------------------------------------------------------|
G# |------------------------------------------------------------------|
E  |------------------------------------------------------------------|
B  |------------------------------------------------------------------|
F# |----2-2----3-3-3-3-3-3--2-2----5p1---1-1-1-1-1-1-1-1-1-1-1-1-1----|
B  |----2-2----3-3-3-3-3-3--2-2----5p1---1-1-1-1-1-1-1-1-1-1-1-1-1----|
PM      |-|    |--------------|          |-----------------------|

   |Verse Pt III [00:49]
C# |------------------------------------------------------------------|
G# |------------------------------------------------------------------|
E  |---4---------------------------------4----------------------------|
B  |---4---------------------------------4----------------------------|
F# |---2--3-0-2-0-0-0-0-0-0--6p5--6p5p0--2--3-0-2-0-0-0-0-0-0---------|
B  |------3-0-2-0-0-0-0-0-0--6p5--6p5p0-----3-0-2-0-0-0-0-0-0---------|
PM                |-------|                         |-------|

   |Verse Pt IV [00:53]
C# |---------------------------|
G# |---------------------------|
E  |-----------3-4-------------|
B  |-----------3-4-------------|
F# |--0-2-3-4--1-2--3p2p0------|
B  |--0-2-3-4-------3p2p0------|


   |Verse Pt V [00:55]
C# |----------------------------------------------------------------|
G# |----------------------------------------------------------------|
E  |----------------------------------------------------------------|
B  |----------------------------------------------------------------|
F# |---2h5p2h5--3h6p3h6--4h7p4h7--3h6p3h6--4h7p4h7--5h8p5h8---------|
B  |----------------------------------------------------------------|


   |Verse Pt VI [00:56]
C# |---------------------------------|
G# |---------------------------------|
E  |--4-----------4-3----------------|
B  |--4-----------4-3----------------|
F# |--2--3-0-2-0--2-1--3-2-0-2-3-4:--|
B  |-----3-0-2-0-------3-2-0-2-3-4:--|

   |Chorus Pt I - Clean [00:59] **Be careful with timeing for this riff
C# |----------------------------------------------------------------|
G# |----------------------------------------------------------------|
E  |--14----14----14----14----15----15----15----15-----14-----------|
B  |-----12----12----12----12----12----12----12----12---------------|
F# |----------------------------------------------------------------|
B  |----------------------------------------------------------------|


   |Chorus Pt II [01:03]
C# |----------------------------------------------------------------|
G# |----------------------------------------------------------------|
E  |-------14----14----14----14----14----14----14-------------------|
B  |----15----15----15----15----12----12----12----12----------------|
F# |----------------------------------------------------------------|
B  |----------------------------------------------------------------|


   |Chorus Pt I [01:07]
C# |----------------------------------------------------------------|
G# |----------------------------------------------------------------|
E  |--14----14----14----14----15----15----15----15-----14-----------|
B  |-----12----12----12----12----12----12----12----12---------------|
F# |----------------------------------------------------------------|
B  |----------------------------------------------------------------|


   |Chorus Pt III [01:11]
C# |------------------------------------|
G# |------------------------------------|
E  |-------14----14----14------13~------|
B  |----15----15----15----15---11~------|
F# |------------------------------------|
B  |------------------------------------|

   |Pre-Verse Pt I - x2 Distorted [01:18]                    |2nd ending
C# |---------------------------------------------------------|--------|
G# |---------------------------------------------------------|--------|
E  |---------------------------------------------------------|--------|
B  |----2-2----3-3-3-3-3-3--2-2----5-7----3-3-3-3-3-3--2-2---|--------|
F# |---------------------------------------------------------|--------|
B  |---------------------------------------------------------|--9\----|
PM      |-|    |--------------|    |-|    |--------------|

   |Verse Pt VII - x3 [01:27]
C# |----------------------------------------------------------------|
G# |----------------------------------------------------------------|
E  |----------------------------------------------------------------|
B  |----------------------------------------------------------------|
F# |----0-0----1-1-1-1-1-1--0-0----1-0----1-1-1-1-1-1--0-0----------|
B  |----0-0----1-1-1-1-1-1--0-0----1-0----1-1-1-1-1-1--0-0----------|


   |Verse Pt VIII [01:40]
C# |------------------------------------------------------------------|
G# |------------------------------------------------------------------|
E  |------------------------------------------------------------------|
B  |------------------------------------------------------------------|
F# |----0-0----1-1-1-1-1-1--0-0----5p1---1-1-1-1-1-1-1-1-1-1-1-1-1----|
B  |----0-0----1-1-1-1-1-1--0-0----5p1---1-1-1-1-1-1-1-1-1-1-1-1-1----|
PM                                       |-----------------------|

   |Verse Pt IX - x2 [01:45]            |2nd ending
C# |------------------------------------|------------|
G# |------------------------------------|------------|
E  |--4---------------------------------|--4---------|
B  |--4---------------------------------|--4---------|
F# |--2--3-0-0-0-0-0-0-0-0--6p5--6p5p0--|--2--3-0----|
B  |-----3-0-0-0-0-0-0-0-0--6p5--6p5p0--|-----3-0----|
PM           |-----------|

   |Verse Pt V [01:50]
C# |----------------------------------------------------------------|
G# |----------------------------------------------------------------|
E  |----------------------------------------------------------------|
B  |----------------------------------------------------------------|
F# |---2h5p2h5--3h6p3h6--4h7p4h7--3h6p3h6--4h7p4h7--5h8p5h8---------|
B  |----------------------------------------------------------------|


   |Verse Pt VI [01:52]
C# |---------------------------------|
G# |---------------------------------|
E  |--4-----------4-3----------------|
B  |--4-----------4-3----------------|
F# |--2--3-0-2-0--2-1--3-2-0-2-3-4:--|
B  |-----3-0-2-0-------3-2-0-2-3-4:--|

      |Chorus Pt I - Clean [01:54]
/  C# |----------------------------------------------------------------|
|  G# |----------------------------------------------------------------|
|  E  |--14----14----14----14----15----15----15----15-----14-----------|
|  B  |-----12----12----12----12----12----12----12----12---------------|
|  F# |----------------------------------------------------------------|
|  B  |----------------------------------------------------------------|
|
x3
|     |Chorus Pt II [01:58]
|  C# |----------------------------------------------------------------|
|  G# |----------------------------------------------------------------|
|  E  |-------14----14----14----14----14----14----14-------------------|
|  B  |----15----15----15----15----12----12----12----12----------------|
|  F# |----------------------------------------------------------------|
\  B  |----------------------------------------------------------------|


   |Chorus Pt I [02:20]
C# |----------------------------------------------------------------|
G# |----------------------------------------------------------------|
E  |--14----14----14----14----15----15----15----15-----14-----------|
B  |-----12----12----12----12----12----12----12----12---------------|
F# |----------------------------------------------------------------|
B  |----------------------------------------------------------------|


   |Chorus Pt III [02:24]
C# |------------------------------------|
G# |------------------------------------|
E  |-------14----14----14------13~------|
B  |----15----15----15----15---11~------|
F# |------------------------------------|
B  |------------------------------------|

/     |Bridge Pt I - Distorted [02:42]
|  C# |----------------------------------------------------------------|
|  G# |----------------------------------------------------------------|
|  E  |----------------------------------------------------------------|
|  B  |-------------------------------------------------------6-5------|
|  F# |-----------2------------------2\-----------------3-4------------|
|  B  |----19\--------3-0-2-0h2p0--------3-0-2-0h2p0-------------------|
|          ^^Only 1st time**
x2
|     |Bridge Pt II [02:47]
|  C# |----------------------------------------------------------------|
|  G# |----------------------------------------------------------------|
|  E  |----------------------------------------------------------------|
|  B  |----------------------------------------------------------------|
|  F# |------2------------------2\-----------------2-1-----------------|
\  B  |----------3-0-2-0h2p0--------3-0-2-0h2p0----------1-2-----------|


/     |Bridge Pt I [02:58]
|  C# |------------------------------------------------------------------|
|  G# |------------------------------------------------------------------|
|  E  |------------------------------------------------------------------|
|  B  |--------------------------------------------------6-5-------------|
|  F# |------2---3-0-2-0h2p0----2---3-0-2-0h2p0----3-4-------------------|
|  B  |----------3-0-2-0h2p0--------3-0-2-0h2p0--------------------------|
|  PM            |---------|        |---------|
x4
|     |Bridge Pt II [03:02]
|  C# |------------------------------------------------------------------|
|  G# |------------------------------------------------------------------|
|  E  |------------------------------------------------------------------|
|  B  |------------------------------------------------------------------|
|  F# |------2---3-0-2-0h2p0----2---3-0-2-0h2p0----2-1-------------------|
|  B  |----------3-0-2-0h2p0--------3-0-2-0h2p0----------1-2-------------|
\  PM            |---------|        |---------|


   |Bridge Pt III [03:27]
C# |-------------------------------|
G# |--------------------------{*}--|
E  |--------------------------{*}--|
B  |--------------------------{*}--|
F# |--4\3--------0:--0:--0:---{*}--|
B  |-------3/4---0:--0:--0:--------|

/     |Chorus Pt IV Guitar 1 |Guitar 2** [03:30]
|  C# |----------------------|--------------------------|
|  G# |----------------------|--------------------------|
|  E  |----------------------|--------------------------|
|  B  |---------------5--3~--|--------------------------|
|  F# |---0---3---0----------|--0--3--0--8-8-8-8-8-8-8--|
|  B  |---0---3---0----------|--0--3--0--8-8-8-8-8-8-8--|
|
x2
|     |Chorus Pt V [03:34]
|  C# |-------------------------------|
|  G# |-------------------------------|
|  E  |------7------------------------|
|  B  |------7------------------------|
|  F# |---7--5--3--6--0-0-0-0---------|
\  B  |---7-----3--6--0-0-0-0--w\r----|


/     |Chorus Pt VI [03:35]
|  C# |----------------------------|
|  G# |----------------------------|
|  E  |----------------------------|
|  B  |----------------------------|
|  F# |--0--3--0--8-8-8-8-8-8-8----|
|  B  |--0--3--0--8-----------8----|
|  PM               |-------|
x2
|     |Chorus Pt VII [03:45]          |2nd time play:
|  C# |-------------------------------|------------------|
|  G# |-------------------------------|------------------|
|  E  |------7------------------------|------7-----------|
|  B  |------7------------------------|------7-----------|
|  F# |---7--5--3--6--0-0-0-0-0-0-0---|---7--5--3--6~----|
|  B  |---7-----3--6--0-0-0-0-0-0-0---|---7-----3--6~----|
\  PM                   |---------|

   |Bridge Pt I [03:59]
C# |----------------------------------------------------------------|
G# |----------------------------------------------------------------|
E  |----------------------------------------------------------------|
B  |--------------------------------------------------6-5-----------|
F# |------2------------------2\-----------------3-4-----------------|
B  |----------3-0-2-0h2p0--------3-0-2-0h2p0------------------------|


   |Bridge Pt II [04:03]
C# |----------------------------------------------------------------|
G# |----------------------------------------------------------------|
E  |----------------------------------------------------------------|
B  |----------------------------------------------------------------|
F# |------2------------------2\-----------------2-1-----------------|
B  |----------3-0-2-0h2p0--------3-0-2-0h2p0----------1-2-----------|


/     |Bridge Pt I [04:06]
|  C# |------------------------------------------------------------------|
|  G# |------------------------------------------------------------------|
|  E  |------------------------------------------------------------------|
|  B  |--------------------------------------------------6-5-------------|
|  F# |------2---3-0-2-0h2p0----2---3-0-2-0h2p0----3-4-------------------|
|  B  |----------3-0-2-0h2p0--------3-0-2-0h2p0--------------------------|
|  PM            |---------|        |---------|
x2
|     |Bridge Pt II [04:10]
|  C# |------------------------------------------------------------------|
|  G# |------------------------------------------------------------------|
|  E  |------------------------------------------------------------------|
|  B  |------------------------------------------------------------------|
|  F# |------2---3-0-2-0h2p0----2---3-0-2-0h2p0----2-1-------------------|
|  B  |----------3-0-2-0h2p0--------3-0-2-0h2p0----------1-2-------------|
\  PM            |---------|        |---------|


   |Bridge Pt I [04:21]
C# |------------------------------------------------------------------|
G# |------------------------------------------------------------------|
E  |------------------------------------------------------------------|
B  |----------------------------------------------------6-5-----------|
F# |--------2---3-0-2-0h2p0----2---3-0-2-0h2p0----3-4-----------------|
B  |------------3-0-2-0h2p0--------3-0-2-0h2p0------------------------|
PM              |---------|        |---------|

   |Bridge Pt III [04:25]
C# |------------------------------------------------|
G# |------------------------------------------------|
E  |------------------------------------------------|
B  |------------------------------------------------|
F# |------2---3-0-2-0h2p0----2---3-0-2-0h2p0--------|
B  |----------3-0-2-0h2p0--------3-0-2-0h2p0--------|
PM            |---------|        |---------|

The End...

Basic order:
- Intro
- Verse
- Chorus
- Verse **Note its different from 1st verse - Check Pt IX
- Chorus
- Bridge
- Chorus
- Bridge

Please rate or leave a comment!!
Tap to rate this tab
 
# A B C D E F G H I J K L M N O P Q R S T U V W X Y Z