Song name
# A B C D E F G H I J K L M N O P Q R S T U V W X Y Z

Slipknot - The Virus Of Life tab

Tuning: B Gb B E Ab Db (Drop B)

Verse:
Db---------------------------------------------------------------------------|
Ab---------------------------------------------------------------------------|
E----------------------------------------------------------------------------|
B----------------------------------------------------------------------------|
Gb---------------------------------------------------------------------------|
B--111-1-1-1-1-1-1-1-1-1-1-1-1-1-1-333-0-0-0-0-0-0-0-0-0-0-0-0-0-0-----------|
   xxx x x x x x x x x x x x x x x xxx x x x x x x x x x x x x x x
Repeat this as many times needed.

Db---------------------------------------------------------------------------|
Ab---------------------------------------------------------------------------|
E----------------------------------------------------------------------------|
B--2-------------3b---2-------------3b---2-------------3b---2-------------3b-|
Gb-2-1-0-5^--1-0-3b---2-1-0-3^--1-0-3b---2-1-0-----1-0-3b---2-1-0-----1-0-3b-|
B--2-1-0-----1-0-3b---2-1-0-----1-0-3b---2-1-0-5^--1-0-3b---2-1-0-3^--1-0-3b-|
     x x     x x        x x     x x        x x     x x        x x     x x

Chorus:
Db---------------------------------------------------------------------------|
Ab---------------------------------------------------------------------------|
E----------------------------7-6-5-------------------------------------------|
B--0-2-1-0-3-3-0-4-4-5-1-1-1-x-x-x-------------------------------------------|
Gb-0-2-1-0-3-3-0-4-4-5-1-1-1-5-4-3-------------------------------------------|
B--0-2-1-0-3-3-0-4-4-5-1-1-1-------------------------------------------------|

During one of the verses there's that high pitch sound that i think sid plays but you 
play it on the guitar like this. Constantly hit the string.
Db-11----------------12-----------------10-----------------------------------|
Ab---------------------------------------------------------------------------|
E----------------------------------------------------------------------------|
B----------------------------------------------------------------------------|
Gb---------------------------------------------------------------------------|
B----------------------------------------------------------------------------|
   .................. .................. .....................
This is not the right number of times to hit the string.

^:Bend
-x-:Muted string
x:Palm muted string
Tap to rate this tab
# A B C D E F G H I J K L M N O P Q R S T U V W X Y Z