Guitaretab - guitar tabs
Song name
# A B C D E F G H I J K L M N O P Q R S T U V W X Y Z

Slipknot - Virus Of Life tab

SlipKnot's tune

C#|------------------------------------------------------------------|
G#|------------------------------------------------------------------|
E |------------------------------------------------------------------|
B |--0h1-1-1--1-1---1-1-1--1---1--1-1h0---0--0-0--0-0-0-0---0-0--0---| 
F#|--0h1-1-1--1-1---1-1-1--1---1--1-1h0---0--0-0--0-0-0-0---0-0--0---|
B |--0h1-1-1--1-1---1-1-1--1---1--1-1h0---0--0-0--0-0-0-0---0-0--0---|

Pm   all the time with palm mute
[ Tab from: http://www.guitaretab.com/s/slipknot/54838.html ]
C#|------------------------------------------------------------------|
G#|------------------------------------------------------------------|
E |---------------5---------5----------------------------------------|
B |--0h1----0-----5---------5----------------------------------------|
F#|--0h1----0---------PT1---------PT1---5----------------------------|
B |--0h1----0--------------------------------------------------------|
    \__PT1___/       

Lib    !    !
Pm          
*                 b         e           e  

----------------
PM  = Palm Mute (put the side of your hand in the strings, to let the strings sound like
darkkkknesssy XD just jokin, put your hand and let it sound more metal) = 

Lib =let it soun a bit = !

* = harmonic ( e = harmonic just in the part of the metal, where the fret
 ends, b = just before the end of the fret, s = at 1.5 next to the start of the fret)
----------------

Too much writing and very less playin makes Jotask8bdr a boring guy.

MAGGOTS
Related for Virus Of Life tab