Guitaretab - guitar tabs
Song name
# A B C D E F G H I J K L M N O P Q R S T U V W X Y Z

Slipknot - Vermillion Part 2 tab

Artist: Slipknot
Title: Vermillion Pt.2
Tuning: Two Steps Down, Drop D (E,A,D,G,B,E) -> (B,F#,B,E,G#,C#)
Tabbed By: TLG9289

Gtr.1  Left  Speaker
Gtr.2  Right Speaker

-Intro/Verse 1-
 Gtr.1
|-------------------------------------------------|
|-------------------------------------------------|
|-------------------------7-777-7-777-7-777-7-777-|
|-9991111119-9-9-99999-99-x-xxx-x-xxx-x-xxx-x-xxx-|
|-9999-9-9-10101099991097-5-555-5-555-4-444-4-444-|
|-9999-9-9-9-9-9-99999-99-0-000-0-000-0-000-0-000-|
|Gtr.2                                            | [6x]
|-------------------------------------------------|
|-0--2--------------------------------------------|
|-------------------------------------------------|
|----------5----(p4)------------------------------|
|-------------------------------------------------|
|-------------------------0-----------------------|

-Chorus-
 Gtr.1
|-----------------------------------------------------------------|
|-----------------------------------------------------------------|
|-----------------------------------------7-777-7-777-7-777-7-777-|
|-10-101010-10-101010-10-101010-10-101010-x-xxx-x-xxx-x-xxx-x-xxx-|
|-10-101010-10-101010-10-101010-10-101010-5-555-5-555-5-555-5-555-|
|-10-101010-10-101010-10-101010-10-101010-0-000-0-000-0-000-0-000-|
|Gtr.2                                                            |
|-----------------------------------------------------------------|
|-----------------------------------------------------------------|
|-----------------------------------------7-----------7-----------|
|-10-101010-10-101010-10-101010-10-101010-x-----------x-----------|
|-10-101010-10-101010-10-101010-10-101010-5-----------5-----------|
|-10-101010-10-101010-10-101010-10-101010-7-----------7-----------|

-Verse 2-
Gtr.1
|-------------------------------------------------|
|-------------------------------------------------|
|-------------------------7-777-7-777-7-777-7-777-|
|-9991111119-9-9-99999-99-x-xxx-x-xxx-x-xxx-x-xxx-|
|-9999-9-9-10101099991097-5-555-5-555-4-444-4-444-|
|-9999-9-9-9-9-9-99999-99-0-000-0-000-0-000-0-000-|
|Gtr.2                                            | [4x]
|-------------------------------------------------|
|-0--2--------------------------------------------|
|-------------------------------------------------|
|----------5----(p4)------------------------------|
|-------------------------------------------------|
|-------------------------0-----------------------|

-Chorus-
Gtr.1
|-----------------------------------------------------------------|
|-----------------------------------------------------------------|
|-----------------------------------------7-777-7-777-7-777-7-777-|
|-10-101010-10-101010-10-101010-10-101010-x-xxx-x-xxx-x-xxx-x-xxx-|
|-10-101010-10-101010-10-101010-10-101010-5-555-5-555-5-555-5-555-|
|-10-101010-10-101010-10-101010-10-101010-0-000-0-000-0-000-0-000-|
|Gtr.2                                                            |
|-----------------------------------------------------------------|
|-----------------------------------------------------------------|
|-----------------------------------------7-----------7-----------|
|-10-101010-10-101010-10-101010-10-101010-x-----------x-----------|
|-10-101010-10-101010-10-101010-10-101010-5-----------5-----------|
|-10-101010-10-101010-10-101010-10-101010-7-----------7-----------|
[ Tab from: http://www.guitaretab.com/s/slipknot/55583.html ]
-Interlude-
  Gtr.1
||----0---0-----0---0-----0---0-----0---0----||
||o-----6---6-----6---6-----6---6-----6---6-o||
||-------------------------------------------|| [3x]
||-------------------------------------------||
||o-8---------7---------5---------7---------o||
||-------------------------------------------||
|Gtr.2 (play one measure each time Gtr.1 plays above)|
|--------------|--------------|--------------|
|--------------|--------------|--------------|
|-10-14-7------|-10-14-15-14--|-14-14-7------|
|--------------|--------------|--------------|
|--------------|--------------|--------------|
|--------------|--------------|--------------|

 Gtr.1
|---0---0-----0---0--------------------------------------------|
|-----6---6-----6---6------------------------------------------|
|---------------------7-777-7-9-10-----------------7-777-7-777-|
|---------------------7-777-7-9-10-8-888-10-101010-7-777-7-777-|
|-8---------7---------5-555-5-7-8--8-888-10-101010-5-555-5-555-|
|---------------------0-000-0-0-0--8-888-10-101010-0-000-0-000-|
|Gtr.2                                                         |
|--------------------------------------------------------------|
|--------------------------------------------------------------|
|-10-14-7-------------7-777-7-9-10-----------------7-777-7-777-|
|---------------------x-xxx-x-x-x--8-888-10-101010-x-xxx-x-xxx-|
|---------------------5-555-5-7-8--8-888-10-101010-5-555-5-545-|
|---------------------0-000-0-0-0--8-888-10-101010-------------|

 Gtr.1
|-------------------------------------------------------------------|
|-------------------------------------------------------------------|
|-7-777-7-777-14-141414-7-777-7-777-14-141414-7-777-7-777-14-141414-|
|-7-777-7-777-14-141414-7-777-7-777-14-141414-7-777-7-777-14-141414-|
|-5-555-5-555-12-121212-5-555-5-555-12-121212-5-555-5-555-12-121212-|
|-0-000-0-000-0--0-0-0--0-000-0-000-0--0-0-0--0-000-0-000-0--0-0-0--|
|Gtr.2                                                              |
|-------------------------------------------------------------------|
|-------------------------------------------------------------------|
|-7-777-7-777-14-141414-7-777-7-777-14-141414-7-777-7-777-14-141414-|
|-x-xxx-x-xxx-x--x-x-x--x-xxx-x-xxx-x--x-x-x--x-xxx-x-xxx-x--x-x-x--|
|-5-555-5-555-12-121212-5-555-5-555-12-121212-5-555-5-555-12-121212-|
|-0-000-0-000-0--0-0-0--0-000-0-000-0--0-0-0--0-000-0-000-0--0-0-0--|


  Gtr.1
||----0---0-----0---0-----0---0-----0---0----||
||o-----6---6-----6---6-----6---6-----6---6-o||
||-------------------------------------------|| [3x]
||-------------------------------------------||
||o-8---------7---------5---------7---------o||
||-------------------------------------------||
|Gtr.2 (play one measure each time Gtr.1 plays above)|
|--------------|--------------|--------------|
|--------------|--------------|--------------|
|-10-14-15-14--|-10-14-15-14--|-10-14-15-14--|
|--------------|--------------|--------------|
|--------------|--------------|--------------|
|--------------|--------------|--------------|

|---0---0-----0---0---|
|-----6---6-----6---6-|
|---------------------|
|---------------------|
|-8---------7---------|
|---------------------|
|                     |
|---------------------|
|---------------------|
|-10-14---------------|
|---------------------|
|---------------------|
|---------------------|

-Outro-
Gtr.1
|-------------------------------------------------|
|-------------------------------------------------|
|-------------------------7-777-7-777-7-777-7-777-|
|-9991111119-9-9-99999-99-x-xxx-x-xxx-x-xxx-x-xxx-|
|-9999-9-9-10101099991097-5-555-5-555-4-444-4-444-|
|-9999-9-9-9-9-9-99999-99-0-000-0-000-0-000-0-000-|
|Gtr.2                                            | [6x]
|-------------------------------------------------|
|-0--2--------------------------------------------|
|-------------------------------------------------|
|----------5----(p4)------------------------------|
|-------------------------------------------------|
|-------------------------0-----------------------|

-End-
|-------------|
|-------------|
|-------------|
|-------------|
|-------------|
|-0-----------|
|             |
|-------15-14-|
|-12-14-------|
|-------------|
|-------------|
|-------------|
|-------------|
Related for Vermillion Part 2 tab