Song name
# A B C D E F G H I J K L M N O P Q R S T U V W X Y Z

Slither - Life In General tab

artist:slither
song:life in general
scribed by:rory graham


chorus:(heavy distortion)
----------------------------------------------------------|
----------------------------------------------------------|
------------------7-7-------------------------------------|
---9-9-9---5-5-5--7-7--4-4-4------------------------------|
---9-9-9---5-5-5--5-5--4-4-4------------------------------|
---7-7-7---3-3-3-------2-2-2------------------------------|

verse:(light distortion)
----------------------------------------------------------|
----------------------------------------------------------|
----------------------------------------------------------|
----------------7-----------------------------------------|
-----9-----5--5------4------------------------------------|
--7-7---3-3-------2-2-------------------------------------|


Key:~ whammy bar


Solo:(heavy distortion)
-----------------------------------------------------------|
-----------------------------------------------------------|
-----------------------------------------------------------|
-----------------------------------------------------------|
--12-11-10-9-10-11-12-11-10-9-10-11-12-11-10-9-10-11-------|
-----------------------------------------------------------|

--------------------------------------------------------------|
-----------------9-11-14-----9-10-11-14-9-10-11-14-9-10-11-14-|
------------9-11----------------------------------------------|
-------9-11---------------------------------------------------|
--9-11--------------------------------------------------------|
--------------------------------------------------------------|

--------------------------------------------------------------|
---9-10-9-11-9-10-9-11-7-9-7-9-8~~~~--------------------------|
--------------------------------------------------------------|
--------------------------------------------------------------|
--------------------------------------------------------------|
--------------------------------------------------------------|

end:(heavy distortion)
---------------------------------------------------------------|
-2-2-2-7-7-7-5-5-5-3-3-4-5-------------------------------------|
-2-2-2-7-7-7-5-5-5-3-------------------------------------------|
---------------------------------------------------------------|
---------------------------------------------------------------|
---------------------------------------------------------------|
Tap to rate this tab
# A B C D E F G H I J K L M N O P Q R S T U V W X Y Z