Guitaretab - guitar tabs
Song name
# A B C D E F G H I J K L M N O P Q R S T U V W X Y Z

Slo Burn - Muezli tab

muezli

by Slo Burn
from the `97 EP 'amusing the amazing'

transcribed by Christian Reindel (creindel@gmx.de)
any questions or corrections- e-mail me

Slo burn rocks, Kyuss kills, QOSTA sucks,it's pop crap.
John, please go back to the desert and write new songs. I die for that.

TUNE DOWN ONE WHOLE STEP: Dropped C tuning

Intro
D:|--------------------------------------------------------------|
A:|--------------------------------------------------------------|
F:|--------------------------------------------------------------|
C:|-----------2--2--5--5--(5)-----5----5-------------------------|
G:|-0----0----0--0--3--3--(3)-----3----3--3--3-/-5--0-(0)--------|
C:|-0----0--------------------------------3--3-/-5--0-(0)--------|
[ Tab from: http://www.guitaretab.com/s/slo-burn/31557.html ]
mainriff
D:|--------------------------------------------------------------|
A:|--------------------------------------------------------------|
F:|--------------------------------------------------------------|
C:|--------------------------------------------------------------|
G:|--7--7-7-7--0---0-0--0-0-3-3-3--3--3-3-5-5-5--5--5-5----------|
C:|--7--7-7-7--0---0-0--0-0-3-3-3--3--3-3-5-5-5--5--5-5----------|

Riff 2
D:|--------------------------------------------------------------|
A:|--------------------------------------------------------------|
F:|--------------------------------------------------------------|
C:|-10-1010-12--12-12---12-12-7-7-7-7-7-7-7-7-7-7-7-7-7-7-7-7----|
G:|--8--8-8-10--10-10---10-10-5-5-5-5-5-5-5-5-5-5-5-5-5-5-5-5----|
C:|--------------------------------------------------------------|

Outro
D:|--------------------------------------------------------------|
A:|--------------------------------------------------------------|
F:|--------------------------------------------------------------|
C:|--------------------------------------------------------------|
G:|-0-0--0--3--3--0-0--0--4--4--0-0--0--8--8--3h5-5--3h5-3-------|
C:|-0-0--0--3--3--0-0--0--4--4--0-0--0--8--8--3h5-5--3h5-3-------|

So I gave you all the riffs, you can figure out the song structure,
it's pretty easy. It's a killer song.
Related for Muezli tab