Guitaretab - guitar tabs
Song name
# A B C D E F G H I J K L M N O P Q R S T U V W X Y Z

Slo Burn - The Prizefighter tab

the prizefighter

by Slo Burn
from the `97 EP 'amusing the amazing'

transcribed by Christian Reindel (creindel@gmx.de)
any questions or corrections- e-mail me

Slo burn rocks, Kyuss kills, QOSTA sucks,it's pop crap.
John, please go back to the desert and write new songs. I die for that.

TUNE DOWN ONE WHOLE STEP: Dropped C tuning

Intro - play with full open wah wah 
D:|--------------------------------------------------------------|
A:|--------------------------------------------------------------|
F:|--------------------------------------------------------------|
C:|--------------------------------------------------------------|
G:|--3p1--3p1--3-3---3p1--3p1--3-3---3p1--3p1-3-3---3p1--3p1-3-3-|
C:|------------3-3-------------3-3------------3-3------------3-3-|
[ Tab from: http://www.guitaretab.com/s/slo-burn/31560.html ]
Mainriff - play with normal wah wah
D:|--------------------------------------------------------------|
A:|--------------------------------------------------------------|
F:|--------------------------------------------------------------|
C:|--------------------------------------------------------------|
G:|--3p1--3p1--3-3---3p1--3p1--3-3---3p1--3p1-3-3---3p1--3p1-3-3-|
C:|------------3-3-------------3-3------------3-3------------3-3-|

Chorus
D:|-------------------------------------------------------------|
A:|-------------------------------------------------------------|
F:|-------------------------------------------------------------|
C:|--------------------------------------7--7-7--7--7-7---------|
G:|--0--0-0--0--5--5-5--5--6--6-6--6-6---5--5-5--5--5-5---------|
C:|--0--0-0--0--5--5-5--5--6--6-6--6-6--------------------------|

Outro - clean guitar
D:|-------------------------------------------------------|
A:|-------------------------------------------------------|
F:|-------------------------------------------------------|
C:|-------------------------------------------------------|
G:|--0--0-0--0--5--5-5--5--6--6-6--6-6----0----0----------|
C:|--0--0-0--0--5--5-5--5--6--6-6--6-6----0----0----------|
                                         distorsion
end.
Related for The Prizefighter tab