Song name
# A B C D E F G H I J K L M N O P Q R S T U V W X Y Z

Slo-mo - Boy From The City tab

Artist: SLO-MO
Song: Boy From The City
Tuning: Standard

/ = slide in


Acoustic Guitar riff:

|-------------------------------|
|-------------------------------|
|--------6--6-6--------6-6-6-6--| x2
|--------6--6-6--------6-6-6-6--|
|--------4--4-4--------4-4-4-4--|
|--6--6----------6--6-----------|

|-------------------------------|
|-------------------------------|
|--------3--3-3--------3-3-3-3--|
|--------2--2-2--------2-2-2-2--|
|--------1--1-1--------1-1-1-1--|
|--2--2--2--2-2--2--2--2-2-2-2--|

|--------------------------------------|
|--------------------------------------|
|---------10--10-10-------10-10-10-10--|
|---------8---8--8--------8--8--8--6---|
|--/6--6--6---6--6--6-6-6-6--6--6--6---|
|--------------------------------------|


Then the electric guitar starts playing

Distortion guitar riff:
(play this along with the acoustic guitar)

|-------------------|
|-------------------|
|-------------------| x2
|--8--8------6/8----|
|--8--8------6/8----|
|--6--6------4/6----|

|-------------------|
|-------------------|
|-------------------|
|--4--4------2/4----|
|--4--4------2/4----|
|--2--2------0/2----|

|---------------------|
|---------------------|
|--8--8------6/8--8---|
|--8--8------6/8--8---|
|--6--6------4/6--6---|
|---------------------|

You play the electric guitar riff through the whole song (except for the outro. At some 
in the song another distorted electric guitar plays the
acoustic guitars riff. You'll hear when.
Enjoy! :)


http://www.heyslomo.com/
Tap to rate this tab
 
# A B C D E F G H I J K L M N O P Q R S T U V W X Y Z