Song name
# A B C D E F G H I J K L M N O P Q R S T U V W X Y Z

Sloan Leavitt - Oblivious tab

------------------------------------------------------------------|
-----1---------1--------1--------0------------0-------------------|
-----2---2--------2--------2-----0----0-----------0---------------|
-----2------2--------2--------2--0--------0-----------0-----------|
------------------------------------------------------------------|
------------------------------------------------------------------|


-----2---------------2-----------2--------------------------------|
-----3------3-----------3-----------3-----------------------------|
-----2------------------------------------------------------------|
-----0----------0-----------0-----------0-------------------------|
------------------------------------------------------------------|
------------------------------------------------------------------|

Thats all I have now but I just started writing this song.  Hope
you like what I have so far.  If you repeat it and play it over it
always seemed to calm me down and made me not worry about a lot of
stuff in my life.  Thats why I called it oblivious because that is
how it makes me feel when I play it.  Have fun.
Tap to rate this tab
# A B C D E F G H I J K L M N O P Q R S T U V W X Y Z