Song name
# A B C D E F G H I J K L M N O P Q R S T U V W X Y Z

Sloan - Try To Make It tab

Song-Try To Make It (Intro tab)
Artist-Sloan
Transcribed by-Oldreich87

 Tune 1/2 step down

  (This is the main riff of the song)
 
  (guitar 2 comes in after this riff is played twice)
  Guitar 1
e|---2-----5-----2-----5-----2---------|
B|------3-----3-----3-----3----3/5--x6-|
G|-------------------------------------|
D|-------------------------------------|
A|-------------------------------------|
E|-------------------------------------|

 Guitar 2 (Play twice)

e|-----------------------------------------------------------------------|
B|-----------------------------------------------------------------------|
G|--7-7-7-7-7-7-7-7------------------------------------------------------|
D|--7-7-7-7-7-7-7-7---5-5-5-5-5-5-5-5----7-7-7-7-7-7-7-7-7-7-7-7-7-7-7-7-|
A|--5-5-5-5-5-5-5-5---5-5-5-5-5-5-5-5----7-7-7-7-7-7-7-7-7-7-7-7-7-7-7-7-|
E|--------------------3-3-3-3-3-3-3-3----5-5-5-5-5-5-5-5-5-5-5-5-5-5-5-5-|

 

Tap to rate this tab
# A B C D E F G H I J K L M N O P Q R S T U V W X Y Z