Guitaretab - guitar tabs
Song name
# A B C D E F G H I J K L M N O P Q R S T U V W X Y Z

Sloan - Love Is All Around tab

Love is All Around - Sloan
Tab by David Burnham

A
As time moves faster, thereís no moviní
The boys and girls played hand in hand
And if we break, they think we were fooliní
F
Then theyíve got another thing cominí
G
Itís time you tried to understand


Am            F            x2 (With Riff)


         Am
But, you never met a man like me before  F
I walked right up to your open floor
      Am
Where love is all around
          F
And I can feel it


         Am (Riff is played faintly in background)
And Iíve never met a woman like you before
    F
You melted me down to build me up
       D                     Dm
While, love is all around
          Am
I think I feel it

Am
I feel like Iím losing my basis of hoping
And I hope that Iím not losing my sense of feeling
             F#                   G
If thereís a way we can spread it around
           Am
I think we have to do it now
             F                    G
If thereís a way we can spread it around
           Am
We kind of have to do it now


Am            F            x2 (With Riff)

[ Tab from: http://www.guitaretab.com/s/sloan/168973.html ]
        Am
I never want to meet another like you again
    F
You picked me up and you took me in
          Am
I was the only game in town
            F
I think you knew it

          Am  (With Riff)
And if we tone things up like they were before
    F
The path gets wider, as we get older
    D                        Dm
And love is all around
      Am
I can feel it
I think I can feel it
The kids are playing on their own
When things slow down we can all start moviní
F
To places way on down the road
G
By bringing much more of it home
Am


Riff
                                      F
E |-----------------------------------1---------|
B |-----------------------------------1---------|
G |--/5--4--2--0----------------------2---------|
D |---------------2--0----------------3---------|
A |---------------------0^3--2--0-----3---------|
E |--------------------------------3--1---------|

Also for the fun of it, little things like this happen some times
E |-------9------9\7--7---|and |--------------------------|
B |--7/9---------9\7--7---|    |--------------------------|{This isn't
G |-----------------------|    |--/9--7--5----------5--7--|totally right, but
D |-----------------------|    |---------------5^7--------|you get the idea)
A |-----------------------|    |--------------------------|
E |-----------------------|    |--------------------------|
Related for Love Is All Around tab