Song name
# A B C D E F G H I J K L M N O P Q R S T U V W X Y Z

Sloan - If It Feels Good Do It tab

SONG:  If It Feels Good Do It
BAND:  SLOAN
CD:    Pretty Together


(INTRO)
|-----------------------------------|---------------------------------|
|-----------------------------------|---------------------------------|
|-----------------------------------|-----------------5-5-5-5-5-5-5-5-|
|-6-6-6-6-6-6-6-6-7/8\7-7-7-7-7-7-7-|-8-8-8-8-8-8-8-8-x-x-x-x-x-x-x-x-|
|-6-6-6-6-6-6-6-6-6-6-6-6-6-6-6-6-6-|-6-6-6-6-6-6-6-6-6-6-6-6-6-6-6-6-|
|-4-4-4-4-4-4-4-4-4-4-4-4-4-4-4-4-4-|-4-4-4-4-4-4-4-4-4-4-4-4-4-4-4-4-|

(FIG 1)
|-----------------------------------|--------|
|-----------------------------------|--------|
|-6--6--4--6--6---4--6--6--4--------|--4-----|
|-6--6--4--6--6---4--6--6--4--4--2--|--4--4--|
|-4--4--4--4--4---4--4--4--4--4--2--|--2--4--|
|-----------------------------2--0--|-----2--|

(FIG 2)
|-----------------------------------|---------------------------------|-------------|
|-----------------------------------|---------------------------------|-------------|
|-6---6---6--6---6---6---6----------|-4--4--4-4--4--4--4--------------|-------------|
|-6---6---6--6---6---6---6--2--2--2-|-4--4--4-4--4--4--4---4---4---4--|--------2----|
|-4---4---4--4---4---4---4--2--2--2-|-2--2--2-2--2--2--2---4---4---4--|----2h4---2--|
|---------------------------0--0--0-|----------------------2---2---2--|--4----------|

(FIG 3)
|-----------------------------------|
|-----------------------------------|
|-6----------------4----------------|
|-6-------2--------4--------4-------|
|-4-------2--------2--------4-------|
|---------0-----------------2-------|

(FIG 4)
|-----------------------------------|
|-----------------------------------|
|-----------------------------------|
|-----------------------------------|
|-4--4--2--4--4-----2--3--4---------|
|----------------4-----------2--0---|

(SOLO)
|-------------------------------------------------|
|------------------------12-12--11-11---11-11-12--|
|--------9-11b13----9--9-11-11--11-11---11-11-12--|   
|--11-11---------11-------------------------------|   Im doing it from memory
|-------------------------------------------------|   so dont blame me if its 
|-------------------------------------------------|   not perfectly right.

You'll have to figure out how many times to play 
everything and all of the struming patters, but all the parts are there.
The solo isnt perfect but just fool around with it 
and it will sound fine.

Dave Schneider..............

Tap to rate this tab
 
# A B C D E F G H I J K L M N O P Q R S T U V W X Y Z