Song name
# A B C D E F G H I J K L M N O P Q R S T U V W X Y Z

Sloan - The Good In Everyone tab

Song: The Good In Everyone
Band: Sloan
Album: One Chord To Another
Label: murderecords/The Enclave
written by: S. Pentland/Sloan
tabbed by: ultimatelefty

Please rate, comment, and enjoy!!!


Would you please, welcome to the stage..... SLOAN!!!!

Intro:

e|-------------------------------------------------------------------------|
B|-------------------------------------------------------------------------|
G|--7--9--7--9--7--9--7-7-7--7-7--9--7--9--7--9--7-7-7--7-7--9--7--9--7--9-|
D|--7--9--7--9--7--9--7-7-7--7-7--9--7--9--7--9--7-7-7--7-7--9--7--9--7--9-|
A|--5--7--5--7--5--7--5-5-5--5-5--7--5--7--5--7--5-5-5--5-5--7--5--7--5--7-|
E|-------------------------------------------------------------------------|

e|-------------------------------------|
B|-------------------------------------|
G|--7-7-7--7-7--9--7--9--7--9--7-7-7-7-|
D|--7-7-7--7-7--9--7--9--7--9--7-7-7-7-|
A|--5-5-5--5-5--7--5--7--5--7--5-5-5-5-|
E|-------------------------------------|

e|-------------------------------|
B|-------------------------------|
G|-------------------------------|
D|-9--9-9-7-7-7-7-9--9-9-7-7-7-7-|
A|-9--9-9-7-7-7-7-9--9-9-7-7-7-7-|
E|-7--7-7-5-5-5-5-7--7-7-5-5-5-5-|x2

Verse:

e|-------------------------------|
B|-------------------------------|
G|-------------------------------|
D|-9--9-9-7-7-7-7-9--9-9-7-7-7-7-|
A|-9--9-9-7-7-7-7-9--9-9-7-7-7-7-|
E|-7--7-7-5-5-5-5-7--7-7-5-5-5-5-|x4

Chorus:

e|-------------------------------------------------------------|
B|-------------------------------------------------------------|
G|-8--8-8-8-8-8-8----------------6--6-6-6-6-6-6----------------|
D|-8--8-8-8-8-8-8-8--8-8-8-8-8-8-6--6-6-6-6-6-6-6--6-6-6-6-6-6-|
A|-6--6-6-6-6-6-6-8--8-8-8-8-8-8-4--4-4-4-4-4-4-6--6-6-6-6-6-6-|
E|----------------6--6-6-6-6-6-6----------------4--4-4-4-4-4-4-|x2

Fill:

e|-------------------|
B|-11b-11-11-11-11br-|
G|-------------------|
D|-------------------|
A|-------------------|
E|-------------------|

Post-Chorus:

e|----------------------------------|
B|-7-7-7----5-5-5----7-7-7----5-5-5-|
G|-8-8-8----6-6-6----8-8-8----6-6-6-|
D|-9-9-9----7-7-7----9-9-9----7-7-7-|
A|-9-9-9----7-7-7----9-9-9----7-7-7-|
E|-7-7-7----5-5-5----7-7-7----5-5-5-|x2

Verse:

e|----------------------------------|
B|-7-7-7----5-5-5----7-7-7----5-5-5-|
G|-8-8-8----6-6-6----8-8-8----6-6-6-|
D|-9-9-9----7-7-7----9-9-9----7-7-7-|
A|-9-9-9----7-7-7----9-9-9----7-7-7-|
E|-7-7-7----5-5-5----7-7-7----5-5-5-|x4

Fill Before Chorus:

e|------------------------|
B|-11~~~-9~~~~-9~~~-13~~~-|
G|------------------------|
D|------------------------|
A|------------------------|
E|------------------------|

Chorus:

e|-------------------------------------------------------------|
B|-------------------------------------------------------------|
G|-8--8-8-8-8-8-8----------------6--6-6-6-6-6-6----------------|
D|-8--8-8-8-8-8-8-8--8-8-8-8-8-8-6--6-6-6-6-6-6-6--6-6-6-6-6-6-|
A|-6--6-6-6-6-6-6-8--8-8-8-8-8-8-4--4-4-4-4-4-4-6--6-6-6-6-6-6-|
E|----------------6--6-6-6-6-6-6----------------4--4-4-4-4-4-4-|x3

Outro:

e|-------------------------------------------------------------------------|
B|-------------------------------------------------------------------------|
G|--7--9--7--9--7--9--7-7-7--7-7--9--7--9--7--9--7-7-7--7-7--9--7--9--7--9-|
D|--7--9--7--9--7--9--7-7-7--7-7--9--7--9--7--9--7-7-7--7-7--9--7--9--7--9-|
A|--5--7--5--7--5--7--5-5-5--5-5--7--5--7--5--7--5-5-5--5-5--7--5--7--5--7-|
E|-------------------------------------------------------------------------|

e|----------------------------------------------------|
B|----------------------------------------------------|
G|--7-7-7--7-7--9--7--9--7--9--7-7-7-7----------------|
D|--7-7-7--7-7--9--7--9--7--9--7-7-7-7-------------9\-|
A|--5-5-5--5-5--7--5--7--5--7--5-5-5-5-------------9\-|
E|-------------------------------------(drum fill)-7\-|

Cheering Then:

e|------------------------------------|
B|------------------------------------|
G|-0-------------9--9-9-7-------------|
D|-0-----9-9-9-9-9--9-9-7-------------|
A|-------9-9-9-9-7--7-7-5-(fades out)-|
E|-------7-7-7-7----------------------|

(P. Pentland/Sloan) 

First off 
Here's what you do to me 
You get rough 
Attack my self-esteem 
It's not much 
But it's the best I've got 
And I thought you saw 
The good in everyone 

Ooh, the good in everyone 
You see the good in everyone 
You see the good in everyone 

I close my eyes 
I can't give it up 
I dose my mind 
I can't get enough 
I'm in no shape 
I gotta turn it off 
Just let it play 
The Good In Everyone 

Ooh, the good in everyone 
You see the good in everyone 
You see the good in everyone 
You see the good in everyone 
Ooh, the good in everyone


And There You Have It. Enjoy!
ultimatelefty

************************************

| /   slide up
| \   slide down
| h   hammer-on
| p   pull-off
| ~   vibrato
| +   harmonic
| x   Mute note
| b   Bend
| pb  Pre-bend
| br  Bend release
| pbr Pre-bend release
| brb Bend release bend

************************************
Tap to rate this tab
# A B C D E F G H I J K L M N O P Q R S T U V W X Y Z