Song name
# A B C D E F G H I J K L M N O P Q R S T U V W X Y Z

Sloan - Life Of A Working Girl tab

SLOAN
The Life Of A Working Girl (C. Murphy/Sloan)
from the album      "Pretty Together"

tabbed by: Dave Schneider


This is a great song by sloan, you have to wait for a little fade in before you start
and then the rest is simple.  It will take you a couple times to get the feeling for
everything especially the second riff in 7/8. But the rest is self explainitory.

(RIFF 1)
E|-------------------------------------------------|
B|----3-----2--5---5-3-2------------2------------2-|
G|-----0-----0-------------2----4-----4--4-3-4-----|
D|-----------------0-----0---------------------4---|(5x)
A|---------------2------------2---2----------------|
E|--3-----3------------------------------2---------|

7/8
(RIFF 2)
E|---------------------------------------------|
B|----3-----2--5---5-3-2------------2----------|
G|-----0-----0-------------2----4-----4--4-3-4-|(1x)
D|-----------------0-----0---------------------|
A|---------------2------------2---2------------|
E|--3-----3------------------------------2-----|

(RIFF 1) (5x)

(RIFF 3)
E|-------------------------------------------------------|
B|----3-----2--5---5-3-2------------2----2---2---2-------|
G|-----0-----0-------------2----4-----4--3---4-------4-3-|(1x)
D|-----------------0-----0-------------------------------|
A|---------------2------------2---2----------------------|
E|--3-----3--------------------------------2---2---2-----|

(RIFF 4)
E|-------------------------------------------|
B|----3-----2--5---5-3-2-----2---2---2-------|
G|-----0-----0-------------2-3---4-------4-3-|(1x)
D|-----------------0-----0-------------------|
A|---------------2---------------------------|
E|--3-----3--------------------2---2---2-----|

(RIFF 1) (5x)
(RIFF 2) (1x)
(RIFF 1) (1x)
(RIFF 2) (1x)
(RIFF 1) (5x)
(RIFF 3) (1x)
(RIFF 1) however many times until the outro

(OUTRO)
E|----------------0--|
B|----3-----2--5--3--|
G|-----0-----0----2--|
D|----------------0--|
A|-------------------|
E|--3-----3----------|

Dave Schneider
Tap to rate this tab
# A B C D E F G H I J K L M N O P Q R S T U V W X Y Z