Guitaretab - guitar tabs
Song name
# A B C D E F G H I J K L M N O P Q R S T U V W X Y Z

Sloan - Who Taught You To Live Like That tab

Who Taught You To Live Like That Ė Sloan

Tabbed by Adam Bishop

Just three chords, mostly piano with some guitar.
Maybe someday Iíll figure out the solo too.

D Ė x57775
G Ė 355433
A Ė 577655

D (piano and bass)

D
She came through inspections, towards me in sections

The life disappeared from the room
    G
She asked me politely, may I put this lightly
    D
The debt that you thought was exhumed
     A                        G
Itís buried beneath us, since I wrote the thesis
  D
I think I know better than you

Chorus:
                  D
Who taught you to live like that, who taught you to live like that
                  G                                 D
Who taught you to live like that, who taught you to live like that
     A                        G
Itís buried beneath us, since I wrote the thesis
    D
Who taught you to live like that
[ Tab from: http://www.guitaretab.com/s/sloan/75748.html ]
(With riff 1)
Letís circulate freely, surrender completely
Wind up alone in the road
The lightís getting brighter, the prize to the fighter
And now we got something to hold
And if it gets heavy you canít keep it steady
Remember the things youíve been told

Chorus (with riff 2)

Breakdown, with riff 1
Who taught you to live like that

Solo

(Piano only)
Sounds a bit off side, (?) who just died
Whoíll be the first to speak
The piano is upright, attendants are uptight
Counting the days of the week
(Guitar re-enters)
But round about midnight, sheíll come (into highlight?)
The partyís filled into the street

Chorus to end

Riff 1:
E|--------15----13--------|
B|--15----------------13--|
G|------------------------|
D|------------------------|
A|------------------------|
E|------------------------|

Riff 2:
E|-------------------------------------------------------|
B|-------------------------------------------------------|
G|------12--11----9--------9------------12--11----9------|
D|--12---------------12-------------12---------------12--|
A|-------------------------------------------------------|
E|-------------------------------------------------------|

http://www.angelfire.com/mi/Grenfell/guitar.html
Related for Who Taught You To Live Like That tab