Song name
# A B C D E F G H I J K L M N O P Q R S T U V W X Y Z

Slon N Sadez - Pot V Fx tab

SLON IN SADEŽ- POT V F(X)

This is a song from a slovenian band, Slon 'n' Sadez, if you want to know more about
them, check out their site: www.sloninsadez.com
Well, the site is in Slovenian, sorry. 

Intro
e|--------------------------------------------------|
B|--------------------------------------------------|
G|------------------------------------------------4-|
D|-----4--2-1-------------------4--2-1--------2-4---|
A|--2----------2h3p2-0-2--0--2----------3-2-3-------|
E|--------------------------------------------------|

e|--------------------------------------------------|
B|--------------------------------------------------|
G|--------------------------------------------------|
D|-----4--2-1------------------4--2-1---------------|
A|--2---------2h3p2-0-2--0--2----------4-3~~~-------|
E|--------------------------------------------------|


Chorus:
e|----------------------|
B|----------------------|
G|-4-4--4-4--4-4--4-4-5-|
D|-4-4--4-4--4-4--4-4-5-|
A|-2-2--2-2--2-2--2-2-3-|
E|----------------------| (8x)

Bridge:
e|--------------------------------------------------|
B|--------------------------------------------------|
G|-------------------------------4------------------|
D|-----4--2-1------------------4--4-----------------|
A|--2---------2h3p2-0-2--0--2-------2-3~~~----------|
E|--------------------------------------------------|


    G                   A               B  
bo vidu, da nismo le številke, da smo ljudje
Tap to rate this tab
# A B C D E F G H I J K L M N O P Q R S T U V W X Y Z