Song name
# A B C D E F G H I J K L M N O P Q R S T U V W X Y Z

Sloppy Meateaters - Outta Control tab

i noticed that this tab is on almost every other site but this one. 
so here it is:

"Outta Control" - Sloppy Meateaters

Intro:
e|------------------------------------|
B|------------------------------------|
G|------------------------------------|
D|------------------------------------|
A|--------6666-7777-------------------|
E|---7777-----------7777--------------|
Use power chords if you wish
end intro
e|--------------------------------------------------------|
B|--------------------------------------------------------|
G|--------------------------------------------------------|
D|---9----------------------------------------------------|
A|-----------------------9----4---------------------------|
E|---7-------------------7----2---------------------------|

e|-------------------------------------------------------------|
B|-------------------------------------------------------------|
G|---4---8--9-8--6--4----4---8--9-8-11--9--7--6----------------|
D|-------------------------------------------------------------|
A|---2---6--7-6--4--2----2---6--7-6--9--7--6--4----------------|
E|-------------------------------------------------------------|

Verse
e|--------------------------|
B|--------------------------|
G|--------------------------|
D|---4----------------------|
A|---2---2--4----6---2--4---|
E|-------0--2----4---0--2---|

e|------------------------|
B|------------------------|
G|------------------------|
D|--------------4---------|
A|---6----2----2---4------|
E|---4----0--------2------|

Chorus
e|--------------------|
B|--------------------|
G|--------------------|
D|-----------4--------|
A|---2-------2----4---|
E|---0------------2---|

bridge:
e|----------------------|
B|----------------------|
G|----------------------|
D|----------------------|
A|---6----4----2----4---|
E|---4----2----0----2---|

e|----------------------|
B|----------------------|
G|---9--11---13--11-----|
D|----------------------|
A|---7---9---11---9-----|
E|----------------------|
Tap to rate this tab
# A B C D E F G H I J K L M N O P Q R S T U V W X Y Z