Song name
# A B C D E F G H I J K L M N O P Q R S T U V W X Y Z

Sloppy Meateaters - Give Me Something tab

I think for the latest version of Forbidden Meat, they may've dropped the
guitars all down 1/2 a step.  Well I'm pretty sure it's the case for this song.
So this is tabbed in Eb-Ab-Db-Gb-Bb-eb

Intro/Verse
|-------------------------------------------------------------------
|-------------------------------------------------------------------
|---4---4---4---4---4---4-/7-7-5-4---4---4---4---4------------------
|-5---5---5---5---4---4------------2---2---2---2------5---5---5---0-
|---------------------------------------------------3---3---3---3---
|-------------------------------------------------------------------

Chorus
|-------------------------------------------------------------
|-------------------------------------------------------------
|------------------------7-7-7-7-7-7-7-7--5-5-5-5-5-5-5-5-----
|-5-5--/2-2-2-2-2-2-2-2--7-7-7-7-7-7-7-7--5-5-5-5-5-5-5-5---5-
|-5-5--/2-2-2-2-2-2-2-2--5-5-5-5-5-5-5-5--3-3-3-3-3-3-3-3---5-
|-3-3--/0-0-0-0-0-0-0-0-------------------------------------3-

Outro
|---------------------------------------------- 
|---------------------------------------------- 
|-----7-----5------7-----5-------7-----5--7---- 
|--5--7--2--5---5--7--2--5----5--7--2--5--7--5- 
|--5--5--2--3---5--5--2--3----5--5--2--3--5--5- 
|--3-----0------3-----0-------3-----0--------3-
  |     Strum chords      |  | sustain chords |

There's also a solo that I can't work out right at the moment,
but these are the basics of the song.............. remember drop 1/2 a step!
Tap to rate this tab
# A B C D E F G H I J K L M N O P Q R S T U V W X Y Z