Song name
# A B C D E F G H I J K L M N O P Q R S T U V W X Y Z

Sloppy Meateaters - Fat Chicks tab

e|------------------------------------------------------------------------------|
B|------------------------------------------------------------------------------|
G|-----9--------9-------9-------9-------------9---------9--------9--------9-----|
D|---9---9----9---9---9---9---9---9-------9---9----9---9---9----9---9---9-------|
A|-7--------7-------0-------0--------0---7--------7--------0---------0-------0--|
E|------------------------------------------------------------------------------|  (x2)

e|------------------------------------------------------------------------------|
B|------------------------------------------------------------------------------|
G|---------------------2-2-2-2-2-2-2-2---------------------2-2-2-2-2-2-2-2------|
D|-2-2-2-2-2-2-2-2-2-2-2-2-2-2-2-2-2-2-2-2-2-2-2-2-2-2-2-2-2-2-2-2--------------|
A|-2-2-2-2-2-2-2-2-0-0-0-0-0-0-0-0-2-2-2-2-2-2-2-2-0-0-0-0-0-0-0-0--------------|
E|-0-0-0-0-0-0-0-0---------------------0-0-0-0-0-0-0-0--------------------------|

e|------------------------------------------------------------------------------|
B|------------------------------------------------------------------------------|
G|-7-x-7-7----------------------------------------------------------------------|
D|-7-x-7-7-7-x-7-7-2-2-2-2-2-2-2-2-2-2-2-2-2-2-2-2------------------------------|
A|-5-x-5-5-7-x-7-7-2-2-2-2-2-2-2-2-2-2-2-2-2-2-2-2------------------------------|
E|-----------5-x-5-5-0-0-0-0-0-0-0-0-0-0-0-0-0-0-0-0----------------------------|

e|------------------------------------------------------------------------------|
B|------------------------------------------------------------------------------|
G|-7-x-7-7-----------4-4-4-4-4-4-4-4-4-4-4-4-4-4-4-4----------------------------|
D|-7-x-7-7-7-x-7-7-4-4-4-4-4-4-4-4-4-4-4-4-4-4-4-4------------------------------|
A|-5-x-5-5-7-x-7-7-2-2-2-2-2-2-2-2-2-2-2-2-2-2-2-2------------------------------|
E|-----------5-x-7-7------------------------------------------------------------|

e|------------------------------------------------------------------------------|
B|------------------------------------------------------------------------------|
G|---------------------4-4-4-4-4-4-4-4-7-7-7-7-7-7-7-7--------------------------|
D|-2-2-2-2-2-2-2-2-4-4-4-4-4-4-4-4-7-7-7-7-7-7-7-7-7-7-7-7-7-7-7-7--------------|
A|-2-2-2-2-2-2-2-2-2-2-2-2-2-2-2-2-5-5-5-5-5-5-5-5-7-7-7-7-7-7-7-7--------------|
E|-0-0-0-0-0-0-0-0-----------------------------------------5-5-5-5-5-5-5-5------|

e|------------------------------------------------------------------------------|
B|------------------------------------------------------------------------------|
G|---------------------4-4-4-4-4-4-4-4-7-7-7-7-7-7-7-7--------------------------|
D|-2-2-2-2-2-2-2-2-4-4-4-4-4-4-4-4-7-7-7-7-7-7-7-7-7-7-7-7-7-7-7-7--------------|
A|-2-2-2-2-2-2-2-2-2-2-2-2-2-2-2-2-5-5-5-5-5-5-5-5-7-7-7-7-7-7-7-7--------------|
E|-0-0-0-0-0-0-0-0-----------------------------------------5-5-5-5-5-5-5-5------|

e|------------------------------------------------------------------------------|
B|------------------------------------------------------------------------------|
G|----------2------------------2-/-14-------------------------------------------|
D|-2--------2--------2--------2-/-14--------------------------------------------|
A|-2--------0--------2--------0-------------------------------------------------|
E|-0------------------0---------------------------------------------------------|

e|------------------------------------------------------------------------------|
B|------------------------------------------------------------------------------|
G|---------------------2-2-2-2-2-2-2-2---------------------2-2-2-2-2-2-2-2------|
D|-2-2-2-2-2-2-2-2-2-2-2-2-2-2-2-2-2-2-2-2-2-2-2-2-2-2-2-2-2-2-2-2--------------|
A|-2-2-2-2-2-2-2-2-0-0-0-0-0-0-0-0-2-2-2-2-2-2-2-2-0-0-0-0-0-0-0-0--------------|
E|-0-0-0-0-0-0-0-0---------------------0-0-0-0-0-0-0-0--------------------------|

e|------------------------------------------------------------------------------|
B|------------------------------------------------------------------------------|
G|-7-x-7-7----------------------------------------------------------------------|
D|-7-x-7-7-7-x-7-7-2-2-2-2-2-2-2-2-2-2-2-2-2-2-2-2------------------------------|
A|-5-x-5-5-7-x-7-7-2-2-2-2-2-2-2-2-2-2-2-2-2-2-2-2------------------------------|
E|-----------5-x-5-5-0-0-0-0-0-0-0-0-0-0-0-0-0-0-0-0----------------------------|

e|------------------------------------------------------------------------------|
B|------------------------------------------------------------------------------|
G|-7-x-7-7-----------4-4-4-4-4-4-4-4-4-4-4-4-4-4-4-4----------------------------|
D|-7-x-7-7-7-x-7-7-4-4-4-4-4-4-4-4-4-4-4-4-4-4-4-4------------------------------|
A|-5-x-5-5-7-x-7-7-2-2-2-2-2-2-2-2-2-2-2-2-2-2-2-2------------------------------|
E|-----------5-x-7-7------------------------------------------------------------|

e|------------------------------------------------------------------------------|
B|------------------------------------------------------------------------------|
G|---------------------4-4-4-4-4-4-4-4-7-7-7-7-7-7-7-7--------------------------|
D|-2-2-2-2-2-2-2-2-4-4-4-4-4-4-4-4-7-7-7-7-7-7-7-7-7-7-7-7-7-7-7-7--------------|
A|-2-2-2-2-2-2-2-2-2-2-2-2-2-2-2-2-5-5-5-5-5-5-5-5-7-7-7-7-7-7-7-7--------------|
E|-0-0-0-0-0-0-0-0-----------------------------------------5-5-5-5-5-5-5-5------|


e|------------------------------------------------------------------------------|
B|------------------------------------------------------------------------------|
G|---------------------4-4-4-4-4-4-4-4-7-7-7-7-7-7-7-7--------------------------|
D|-2-2-2-2-2-2-2-2-4-4-4-4-4-4-4-4-7-7-7-7-7-7-7-7-7-7-7-7-7-7-7-7--------------|
A|-2-2-2-2-2-2-2-2-2-2-2-2-2-2-2-2-5-5-5-5-5-5-5-5-7-7-7-7-7-7-7-7--------------|
E|-0-0-0-0-0-0-0-0-----------------------------------------5-5-5-5-5-5-5-5------|

e|------------------------------------------------------------------------------|
B|------------------------------------------------------------------------------|
G|------------------2--2-2--2-2-2------------------2--2-2--2-2-2----------------|
D|-2--2-2--2-2-2-2--2-2--2-2-2-2--2-2--2-2-2-2--2-2--2-2-2----------------------|
A|-2--2-2--2-2-2-0--0-0--0-0-0-2--2-2--2-2-2-0--0-0--0-0-0----------------------|
E|-0--0-0--0-0-0------------------0--0-0--0-0-0---------------------------------|

e|------------------------------------------------------------------------------|
B|------------------------------------------------------------------------------|
G|------------------2--2-2--2-2-2------------------2--2-2--2-2-2----------------|
D|-2--2-2--2-2-2-2--2-2--2-2-2-2--2-2--2-2-2-2--2-2--2-2-2----------------------|
A|-2--2-2--2-2-2-0--0-0--0-0-0-2--2-2--2-2-2-0--0-0--0-0-0----------------------|
E|-0--0-0--0-0-0------------------0--0-0--0-0-0---------------------------------|

e|------------------------------------------------------------------------------|
B|------------------------------------------------------------------------------|
G|------------------------------------------------------------------------------|
D|------------------------------------------------------------------------------|
A|---------------------2-2-2-2-2-2-2-2-5-5-5-5-5-5-5-5--------------------------|
E|-0-0-0-0-0-0-0-0-----------------------------------------5-5-5-5-5-5-5-5------|

e|------------------------------------------------------------------------------|
B|------------------------------------------------------------------------------|
G|---------------------4-4-4-4-x-4-4-4-7-7-7-7-x-7-7-7--------------------------|
D|-2-2-2-2-x-2-2-2-4-4-4-4-x-4-4-4-7-7-7-7-x-7-7-7-7-7-7-7-x-7-7-7--------------|
A|-2-2-2-2-x-2-2-2-2-2-2-2-x-2-2-2-5-5-5-5-x-5-5-5-7-7-7-7-x-7-7-7--------------|
E|-0-0-0-0-x-0-0-0-----------------------------------------5-5-5-5-x-5-5-5------|

e|------------------------------------------------------------------------------|
B|------------------------------------------------------------------------------|
G|---------------------4-4-4-4-x-4-4-4-7-7-7-7-x-7-7-7--------------------------|
D|-2-2-2-2-x-2-2-2-4-4-4-4-x-4-4-4-7-7-7-7-x-7-7-7-7-7-7-7-7-7-7-7--------------|
A|-2-2-2-2-x-2-2-2-2-2-2-2-x-2-2-2-5-5-5-5-x-5-5-5-7-7-7-7-7-7-7-7--------------|
E|-0-0-0-0-x-0-0-0-----------------------------------------5-5-5-5-5-5-5-5------|

e|------------------------------------------------------------------------------|
B|------------------------------------------------------------------------------|
G|---------------------4-4-4-4-4-4-4-4-7-7-7-7-7-7-7-7--------------------------|
D|-2-2-2-2-2-2-2-2-4-4-4-4-4-4-4-4-7-7-7-7-7-7-7-7-7-7-7-7-7-7-7-7--------------|
A|-2-2-2-2-2-2-2-2-2-2-2-2-2-2-2-2-5-5-5-5-5-5-5-5-7-7-7-7-7-7-7-7--------------|
E|-0-0-0-0-0-0-0-0-----------------------------------------5-5-5-5-5-5-5-5------|

e|------------------------------------------------------------------------------|
B|------------------------------------------------------------------------------|
G|---------------------4-4-4-4-4-4-4-4-7-7-7-7-7-7-7-7--------------------------|
D|-2-2-2-2-2-2-2-2-4-4-4-4-4-4-4-4-7-7-7-7-7-7-7-7-7-7-7-7-7-7-7-7--------------|
A|-2-2-2-2-2-2-2-2-2-2-2-2-2-2-2-2-5-5-5-5-5-5-5-5-7-7-7-7-7-7-7-7--------------|
E|-0-0-0-0-0-0-0-0-----------------------------------------5-5-5-5-5-5-5-5------|

e|------------------------------------------------------------------------------|
B|------------------------------------------------------------------------------|
G|------------------2--2-2--2-2-2------------------2--2-2--2-2-2----------------|
D|-2--2-2--2-2-2-2--2-2--2-2-2-2--2-2--2-2-2-2--2-2--2-2-2----------------------|
A|-2--2-2--2-2-2-0--0-0--0-0-0-2--2-2--2-2-2-0--0-0--0-0-0----------------------|
E|-0--0-0--0-0-0------------------0--0-0--0-0-0---------------------------------|

e|------------------------------------------------------------------------------|
B|------------------------------------------------------------------------------|
G|------------------2--2-2--2-2-2------------------2--2-2--2-2-2----------------|
D|-2--2-2--2-2-2-2--2-2--2-2-2-2--2-2--2-2-2-2--2-2--2-2-2----------------------|
A|-2--2-2--2-2-2-0--0-0--0-0-0-2--2-2--2-2-2-0--0-0--0-0-0----------------------|
E|-0--0-0--0-0-0------------------0--0-0--0-0-0---------------------------------|
Tap to rate this tab
# A B C D E F G H I J K L M N O P Q R S T U V W X Y Z