Song name
# A B C D E F G H I J K L M N O P Q R S T U V W X Y Z

Sloppy Meateaters - Shonka Tonk tab

-----------------------------------------------------------
				Shonka Tonk
-----------------------------------------------------------


By:Sloppy Meateaters

Its real easy just listen to the song.

Intro
---------------------------------
---------------------------------
-555555--------------------------
-555555-555555-777777-333333-----
-333333-555555-777777-333333-----
--------333333-555555-111111-----
 *** *  *** *  *** *  *** * 
*is pm

1st Verse
---------------------------------
---------------------------------
-555555--------------------------
-555555-555555-777777-333333-----
-333333-555555-777777-333333-----
--------333333-555555-111111-----
 ****** ****** ****** ******

Gizm in your mouth...
---------------------------------
---------------------------------
-555555--------------------------
-555555-555555-777777-333333-----
-333333-555555-777777-333333-----
--------333333-555555-111111-----

I didnt get the wah wah part yet

2nd verse


---------------------------------
---------------------------------
-555555--------------------------
-555555-555555-777777-333333-----
-333333-555555-777777-333333-----
--------333333-555555-111111-----

i saw big titty girl today...
---------------------------------
---------------------------------
-5-------------------------------
-5------5------7------3----------
-3------5------7------3----------
--------3------5------1----------
=======================================================
Tap to rate this tab
# A B C D E F G H I J K L M N O P Q R S T U V W X Y Z