Song name
# A B C D E F G H I J K L M N O P Q R S T U V W X Y Z

Sloppy Meateaters - Brand New Kind Of tab

Intro
|----------------------
|---------------------- 
|---------------------- 
|----------9-9--7-7--5-
|---7-7----------------
|---------------------- x2 

|---------------------
|--------------------- 
|--------------------- 
|---------4-4--5-5--7-
|---5-5--------------- 
|--------------------- x2 

|--------------------- 
|---------------------
|---------------------
|---------9-9--7-7--5- 
|--------------------- 
|---8-8--------------- x2 

|--------------------- 
|--------------------- 
|--------------------- 
|--------------------- 
|---------6-6--7-7--9-
|---7-7--------------- x2

 
|----------------------------------------- 
|----------------------------------------- 
|----------------------------------------- 
|-9----7----------------------9-9--9-9--9-
|-7----5-----10---10----9-----7-7--7-7--7- 
|-------------8----8----7----------------- 

Verse
|---------------------
|--------------------- 
|--------------------- 
|---9----7------------ 
|---7----5-----7----9- 
|--------------5----7- 

Chorus
|------------------ 
|------------------ 
|------------------ 
|-9---12----------- 
|-7---10---7----9-- 
|----------5----7-- 


solo........ intro +
|--------------------------------------------------------- 
|---------------------------------------------------------
|---------------------------------------------------------
|------9--7--5--7--5----9--7--5--7--5---------------------
|---7-----------------------------------------------------
|--------------------8----------------7--8--7--5--3--2--0- x2
Tap to rate this tab
# A B C D E F G H I J K L M N O P Q R S T U V W X Y Z