Song name
# A B C D E F G H I J K L M N O P Q R S T U V W X Y Z

Sloppy Meateaters - Outta Control tab

Sloppy Meateaters
"Outta Control"



Intro verse:
- play twice for intro then lyrics start -

"lately...."
e|-----------------------|
B|-----------------------|
G|--------8888-9999------|
D|---9999-8888-9999-8888-|
A|---9999-6666-7777-8888-|
E|---7777-----------6666-|
pm   .... .... .... ....

"but who're you..."
e|--------------------------------|
B|--------------------------------|
G|--------------------------------|
D|-----9--9-9---------9~~~-4~~~---|
A|------------(x6)----9~~~-4~~~---|
E|---77-77-7----------7~~~-2~~~---|
pm   .. .. .


Break
           (fast blocks)
e|------------------------------------------|
B|------------------------------------------|
G|---4-88-9-8xxxx6xxxx4--4--88-9-8-11-9-7-6-|
D|------------------------------------------|
A|---2-66-7-6xxxx4xxxx2--2--66-7-6--9-7-6-4-|
E|------------------------------------------|

G|---4-88-9-8xxxx6xxxx4--4--88-9-8-11-9-7-6-7- 4--| immediately
D|------------------------------------------------| -    into
A|---2-66-7-6xxxx4xxxx2--2--66-7-6--9-7-6-4-6- 2--|   verse
E|------------------------------------------------|


Verse
e|-----------------------------------------|
B|-----------------------------------------|
G|---4-444444------------------------------|
D|---4-444444-2-22-4-44-6-666666-2-22-4-44-|
A|---2-222222-2-22-4-44-6-666666-2-22-4-44-|
E|------------0-00-2-22-4-444444-0-00-2-22-|

"with, me now..."
e|-----------------------------------|
B|-----------------------------------|
G|-------------------4-4-4-4---------|
D|---6-6-6-6-2-2-2-2-4-4-4-4-4-4-4-4-|
A|---6-6-6-6-2-2-2-2-2-2-2-2-4-4-4-4-|
E|---4-4-4-4-0-0-0-0---------2-2-2-2-|

                "....spent on the beach"
e|------------------------------|
B|------------------------------|
G|--------------------4~~~------|
D|---6-6-6-6-2-2-2-2--4~~~-4~~~-|
A|---6-6-6-6-2-2-2-2--2~~~-4~~~-|
E|---4-4-4-4-0-0-0-0-------2~~~-|


Chorus
"Noooowwwwww...."
"Outta control"
e|----------------------|
B|----------------------|
G|---------4------------|
D|---2-----4(x8)-4------|
A|---2(x8)-2-----4(x16)-|
E|---0-----------2------|

*Break*
*Verse*
*Chorus*

Bridge:
"And I'll never understand..."
e|---------------------------|
B|---------------------------|
G|---------------------------|
D|---6-----4-----2-----4-----|
A|---6(x8)-4(x8)-2(x8)-4(x8)-|
E|---4-----2-----0-----2-----|

       "You'll always be..."
e|---------------------------|
B|---------------------------|
G|---------------------------|
D|---6-----4-----2~~~--4~~~--|
A|---6(x8)-4(x8)-2~~~--4~~~--|
E|---4-----2-----0~~~--2~~~--|

*Play intro, slowly, then build up speed*

*Chorus*
Lead plays;
e|-----------------------------|
B|-----------------------------|
G|---9------11-----13----11----|
D|---x(x16)--x(x8)-x(x4)-x(x4)-|
A|---7-------9-----11----9-----|
E|-----------------------------|

End:

Rhythm;
e|----------------------|
B|----------------------|
G|----------------------|
D|---2~~~~-22-2-2-2~~~~-|
A|---2~~~~-22-2-2-2~~~~-|
E|---0~~~~-00-0-0-0~~~~-|
pm         .. . .

Lead;
e|---------------------|
B|---------------------|
G|---9~~~~-------9~~~~-|
D|---x----22-2-2-x-----|
A|---7~~~~22-2-2-7~~~~-|
E|--------00-0-0-------|
pm         .. . .

Bass outro:
G|------------------------|
D|------------------------|
A|-/2-2/6-6/7-7/1-1-2~~~~-|
E|------------------------|


***************
Any questions/edit suggestions
Comment below or message
***************

(davo)
Tap to rate this tab
# A B C D E F G H I J K L M N O P Q R S T U V W X Y Z