Song name
# A B C D E F G H I J K L M N O P Q R S T U V W X Y Z

Sloppy Meateaters - Another Friend tab

i cant believe no1 has tabbed this yet but here it is

intro riff 1 
e|----------------------------------------------------------------------|
B|----------------------------------------------------------------------|
G|----------------------------------------------------------------------|
D|------6-----6---6------6-----6---6------9-----9---9-------------------|
A|--4-4---4-4---4---------------------7-7---7-7---7--------9-----9---9--|
E|-------------------5-5---5-5---5---------------------7-7---7-7---7----|

e|----------------------------------------------------------------------|
B|----------------------------------------------------------------------|
G|----------------------------------------------------------------------|
D|-----6-----6-----6---6-----6---6------9-----9---9---------------------|
A|---4---4-4---4-4---4---4-4---4----7-7---7-7---7-------9-----9---9-----|
E|--------------------------------------------------7-7---7-7---7-------|

e|----------------------------------------------------------------------|
B|----------------------------------------------------------------------|
G|----------------------------------------------------------------------|
D|-----6-----6-----6---6-----6---6------9-----9---9---------------------|
A|---4---4-4---4-4---4---------4----7-7---7-7---7-----------------------|
E|------------------------5-------------------------7----let ring-------|

 intro riff 2 guitar one
e|-------------------------------------------|
B|-----------7----------7-------7-9-10-7-----|
G|---6-6-8-9----6-6-8-9-----9-9--------------|
D|-------------------------------------------| x2
A|-------------------------------------------|
E|-------------------------------------------|

 intro riff 2 guitar two
e|-------------------------------------------|
B|-------------------------------------------|
G|--6666----------9999-----------------------|
D|--6666---7777---9999---9999----------------| x2
A|--4444---7777---7777---9999----------------|
E|---------5555----------7777----------------|

 pre verse 
e|-----------------------------------------------------------|
B|-----------------------------------------------------------|
G|--66-6-66-66-66--66-6----------66-6-66-66-66--66-6---------|
D|--66-6-66-66-66--66-6--2--4----66-6-66-66-66--66-6--2-4----|
A|--44-4-44-44-44--44-4--2--4----44-4-44-44-44--44-4--2-4----|
E|-----------------------0--2-------------------------0-2----|

 verse riff 1   *=play 16X palm mute
e|-----------------------------------------------------------|
B|--------------------*-------*------------------------------|
G|---6---------------6----*--9----*--------------------------|
D|---6---7---2---9---6---7---9---9---------------------------|
A|---4---7---2---9---4---7---7---9---------------------------|
E|-------5---0---7-------5-------7---------------------------|

 verse riff 2
e|-------------------------------------------------------------------------|
B|-------------------------------------------------------------------------|
G|------6-----6-----6-----6---6-------6-------6-----6-----6---6----9-------|
D|-----------------------------------------------------------------9---9---|
A|--4-4---4-4---4-4---4-4---4--------------------------------------7---9---|
E|--------------------------------5-5-----5-5---5-5---5-5---5----------7---|

 verse 2 riff 1   *=play 4X  #=play 8X
e|-------------------------------------------------------------|
B|---*---------*---------*---------*---------#---------#-------|
G|--6-----*---9-----*---6-----*---9-----*---6-----#---9-----#--|
D|--6----7----9----9----6----7----9----9----6----7----9----9---|
A|--4----7----7----9----4----7----7----9----4----7----7----9---|
E|-------5---------7---------5---------7---------5---------7---|

e|-----------------------------------------|
B|---*---------*---------#-----------------|
G|--6-----*---9-----*---6-----#------------|
D|--6----7----9----9----6----6-------------|
A|--4----7----7----9----4----6-------------|
E|-------5---------7---------4-------------|

Play intro riff2 and then verse 2

 chorus  -  play each chord 8 times
e|------------------------------------------|
B|------------------------------------------|
G|------------6-------------------6---------|
D|--2----4----6----7----2----4----6----7----|
A|--2----4----4----7----2----4----4----7----|
E|--0----2---------5----0----2---------5----|

rest of the song
e|--------------------------------------------------|
B|--------------------------------------------------|
G|---9-9--------11-11--------6-6--------------------|
D|---9-9-6-7-6--11-11-6-7-6--6-6-6-7-6--7-7-6-7-6---|
A|---7-7--------9--9---------4-4--------7-7---------|
E|--------------------------------------5-5---------|

    play each chord 4X   note: palm muting is used in some parts
e|--------------------------------------------------|
B|--------------------------------------------------|
G|---9---11---6-------9---11---6--------------------|
D|---9---11---6---7---9---11---6---7----------------|
A|---7---9----4---7---7---9----4---7----------------|
E|----------------5----------------5----------------|

e|------------------------------------------------------------------------|
B|------------------------------------------------------------------------|
G|--9-9--9p8p6--9p8p6--1111--9p8p6--9p8p6--6-6--9p8p6--9p8p6--------------|
D|--9-9----------------1111----------------6-6----------------7-7--7-6-4--|
A|--7-7----------------9-9-----------------4-4----------------7-7---------|
E|------------------------------------------------------------5-5---------|

    play each chord 4X
e|------------------------------------------|
B|------------------------------------------|
G|---9---11---6-------9---11---6------------|
D|---9---11---6---7---9---11---6---7--------|
A|---7---9----4---7---7---9----4---7--------|
E|----------------5----------------5--------|

Thats all
Tap to rate this tab
# A B C D E F G H I J K L M N O P Q R S T U V W X Y Z