Song name
# A B C D E F G H I J K L M N O P Q R S T U V W X Y Z

Sloppy Meateaters - I Sing Like A Girl tab

yo!! this is my first tab i had to do it myself cuz i couldn't find a
single one on the net.
but just cuz it's my first doesn't mean its bad. anywayz have fun! :)

intro:
e|-------------------------------------------------------|
b|-------------------------------------------------------|
g|-----7---7-----7---7----7---7--------------------------|
d|---------------------55---5-----4--4-------------------|
a|--55---5----77---7------------55--5--------------------|
E|-------------------------------------------------------|

e|-------------------------------------------------------|
b|-------------------------------------------------------|
g|-----7---7-----7---7----7---7--------------------------|
d|---------------------55---5----------------------------|
a|--55---5----77---7------------5------------------------|
E|-------------------------------------------------------|

e|-------------------------------------------------------|
b|-------------------------------------------------------|
g|--777777-----------------------------------------------|
d|--777777-222222-x-4/5-x-4/5-x-4/5-x-4/5----------------|
a|--555555-222222-x-4/5-x-4/5-x-4/5-x-4/5----------------| x2
E|---------000000-x-2/3-x-2/3-x-2/3-x-2/3----------------|

for that part you could just palm mute it instead of
sliding. but yeah do whatever you think sounds better.

e|--------------------------------------------|
b|--------------------------------------------|
g|--777777-999999-121212121212121212121212----|
d|--777777-999999-121212121212121212121212----| play that 2 times
a|--555555-777777-101010101010101010101010----|
E|--------------------------------------------|

e|------------------------------------------------------------|
b|------------------------------------------------------------|
g|------------------------------------------------------------|
d|--000455-000455--222455-222455----455----455----------------|
a|----------------------------------------------555444-555444-|
E|-------------------------------333----333-------------------|


e|----------------------------------------------------------------|
b|----------------------------------------------------------------|
g|----------------------------------------------777-999-111111-12-|
d|--000455-000455--222455-222455----455----455--777-999-111111-12-|
a|----------------------------------------------555-777-9-9-9--10-|
E|-------------------------------333----333-----------------------|

verse:

e|-------------------------------------------------------|
b|-------------------------------------------------------|
g|--777777-----------------------------------------------|
d|--777777-222222-x-4/5-x-4/5-x-4/5-x-4/5----------------|
a|--555555-222222-x-4/5-x-4/5-x-4/5-x-4/5----------------| x2
E|---------000000-x-2/3-x-2/3-x-2/3-x-2/3----------------|

pre-chourus:

e|-------------------------------------------------------|
b|-------------------------------------------------------|
g|--------------------77777777---------------------------|
d|--99999999-55555555-77777777-77777777------------------|
a|--99999999-55555555-55555555-77777777------------------|
E|--77777777-33333333----------55555555------------------|

chourus:

e|-------------------------------------------------------|
b|-------------------------------------------------------|
g|--777777-999999----------------------------------------|
d|--777777-999999-55555555-------------------------------|
a|--555555-777777-55555555-------------------------------| x2
E|----------------33333333-------------------------------|

then everything is just played over agian

but the bridge goes like this:

e|-----------------------------------------------------|
b|-----------------------------------------------------|
g|----7------7------7------7-----7-----7-----7-----7---|
d|-----7------7------7------7-----7-----7-----7-----7--|
a|--5------5------7------7-----5-----5-----5-----5-----| x2
E|-----------------------------------------------------|

and thats it! :D
Tap to rate this tab
 
# A B C D E F G H I J K L M N O P Q R S T U V W X Y Z