Song name
# A B C D E F G H I J K L M N O P Q R S T U V W X Y Z

Sloppy Seconds - Yuppies tab

Help us improve GuitareTab! Take a short survey!
Here's the rhythm part of the song. pretty easy. figured some Sloppy tabs needed to get
on the web.


Intro/Chorus -


e|------------------------------------------------------------------------|
B|------------------------------------------------------------------------|
G|---------------------------------------7------8------9------------------|
D|-9-9-9-8-8-8-7-7-2-2-2-2-2-2-2-2---X4--x--X8--x--X8--x-(play into verse)|
A|-7-7-7-6-6-6-5-5-0-0-0-0-0-0-0-0-------5------6------7------------------|
E|------------------------------------------------------------------------|

Verse - I play this with root notes on low E because I think the sliding back and forth
the power chords sounds better than jumping down to root notes on A string power chords.
didnt write down how many times you strum each power chord, just listen for the rhythm 
the song.


e|------------------------------------------------------------------------|
B|------------------------------------------------------------------------|
G|------------------------------------------------------------------------|
D|--7-7-7-7--12-x-x-x-x-12-12--7-7-7-7-7--12-x-x-x-x-12-12--14\9/14\9-----|
A|--7-7-7-7--12-x-x-x-x-12-12--7-7-7-7-7--12-x-x-x-x-12-12--14\9/14\9--X2-|
E|--5-5-5-5--10-x-x-x-x-10-10--5-5-5-5-5--10-x-x-x-x-10-10--12\7/12\7-----|


Go from verse directly to chorus. that's it. i don't know the solo, i just figure the
out in five minutes and jotted it down. enjoy.
Related for Yuppies tab