Song name
# A B C D E F G H I J K L M N O P Q R S T U V W X Y Z

Slot - Mertvye Zvezdy tab

This guitar tab is for the Slot song "Dead Stars" (мертвые звезды).

Intro:

D|-----------------------------------------------------------------|
A|-----------------------------------------------------------------|
F|---------------------------------4--4-4-4-4---4-4---4-4-4-4---4--|
C|-1---1-0-1-1---0-1---1-0-1-1---0-4--4-4-4-4---4-4---4-4-4-4---4--|
G|-1---1-0-1-1---0-1---1-0-1-1---0-2--2-2-2-2---2-2---2-2-2-2---2--|
C|-1---1-0-1-1---0-1---1-0-1-1---0---------------------------------|
                                                                   |x2
D|-----------------------------------------------------------------|  
A|-----------------------------------------------------------------|  
F|-----------------------------------------------------------------|  
C|-1111-11-1111-1111-11-1111-1111-11-1111-15-15-15-15-15-----------|  
G|-8-8--8--8-8--8-8--8--8-8--8-8--8--8-8--11-11-11-11-11-----------|  
C|-8-8--8--8-8--8-8--8--8-8--8-8--8--8-8--11-11-11-11-11-4444-6666-| 
   * *          * *          * *     * *           *  * 

Verse 1:

D|----------14~~--------------------|   |-13~~--------14~~--------11-13-|
A|-11~~-----------12~~------14~~----|   |-------------------------------|
F|----------------------------------|   |-------------------------------|
C|----------------------------------|x2 |-------------------------------|
G|----------------------------------|   |-------------------------------|
C|----------------------------------|   |-------------------------------|



Chorus:

D|-----------------------------------------------------------------|
A|-----------------------------------------------------------------|
F|---------------------------------4--4-4-4-4---4-4---4-4-4-4---4--|
C|-1---1-0-1-1---0-1---1-0-1-1---0-4--4-4-4-4---4-4---4-4-4-4---4--|
G|-1---1-0-1-1---0-1---1-0-1-1---0-2--2-2-2-2---2-2---2-2-2-2---2--|
C|-1---1-0-1-1---0-1---1-0-1-1---0---------------------------------|
                                                                   |x2
D|-----------------------------------------------------------------|  
A|-----------------------------------------------------------------|  
F|-----------------------------------------------------------------|  
C|-1111-11-1111-1111-11-1111-1111-11-1111-15-15-15-15-15-----------|  
G|-8-8--8--8-8--8-8--8--8-8--8-8--8--8-8--11-11-11-11-11-----------|  
C|-8-8--8--8-8--8-8--8--8-8--8-8--8--8-8--11-11-11-11-11-4444-6666-|  
   * *          * *          * *     * *           *  *
D|---------------------------------------------------------------|
A|---------------------------------------------------------------|
F|---------------------------------------------------------------|
C|-1-0-1-0-4p3p1-1---0-1-0-4p3p1-0--1-0-1-0-4p3p1-1---0-1-0-2222-|
G|-1-0-1-0-------1---0-1-0-------0--1-0-1-0-------1---0-1-0-2222-|
C|-1-0-1-0-------1---0-1-0-------0--1-0-1-0-------1---0-1-0-2222-|
                                                            ****


Verse 2:

D|------------14-13-----------------|   |-13~~--------14~~--------11-13-|
A|-11~~-------------12~~-------14~~-|   |-------------------------------|
F|----------------------------------|   |-------------------------------|
C|----------------------------------|x2 |-------------------------------|
G|----------------------------------|   |-------------------------------|
C|----------------------------------|   |-------------------------------|



Repeat Chorus:

D|-----------------------------------------------------------------|
A|-----------------------------------------------------------------|
F|---------------------------------4--4-4-4-4---4-4---4-4-4-4---4--|
C|-1---1-0-1-1---0-1---1-0-1-1---0-4--4-4-4-4---4-4---4-4-4-4---4--|
G|-1---1-0-1-1---0-1---1-0-1-1---0-2--2-2-2-2---2-2---2-2-2-2---2--|
C|-1---1-0-1-1---0-1---1-0-1-1---0---------------------------------|
                                                                   |x2
D|-----------------------------------------------------------------|  
A|-----------------------------------------------------------------|  
F|-----------------------------------------------------------------|  
C|-1111-11-1111-1111-11-1111-1111-11-1111-15-15-15-15-15-----------|  
G|-8-8--8--8-8--8-8--8--8-8--8-8--8--8-8--11-11-11-11-11-----------|  
C|-8-8--8--8-8--8-8--8--8-8--8-8--8--8-8--11-11-11-11-11-4444-6666-|  
   * *          * *          * *     * *           *  *
D|--------------------------------------------------------------|
A|--------------------------------------------------------------|
F|--------------------------------------------------------------|
C|-1-1----0-1----0-1--0-1--0-2----1-1----0-1----0-1--0-444-333-1|x2
G|-1-1----0-1----0-1--0-1--0-2----1-1----0-1----0-1--0----------|
C|-1-1----0-1----0-1--0-1--0-2----1-1----0-1----0-1--0----------|
          *      *                       *      *    *


Bridge:

Piano:

D|----------------------------------19-19-19-19-18-21-21-21-19-21----|
A|-19-19-19-19-21-19-19-19-21-19-21-------------------------------18-|
F|-------------------------------------------------------------------|
C|-------------------------------------------------------------------|
G|-------------------------------------------------------------------|
C|-------------------------------------------------------------------|

D|----------------21----------------19-19-19-19-18-21~~-|
A|-19----19-19-21----19-19-21-19-21---------------------|
F|----19------------------------------------------------|
C|------------------------------------------------------|
G|------------------------------------------------------|
C|------------------------------------------------------|

Guitar:

D|---------------------------------------------|
A|---------------------------------------------|
F|---------------------------------------------|
C|-8888888-1111111111111111--------------------|
G|-6666666-9-9-9-9-9-9-9-9--99999999-6666-8888-|
C|--------------------------99999999-6666-8888-|
   ******* * * * * * * * *  ******** **** ****  
D|----------------------------------------|
A|----------------------------------------|
F|----------------------------------------|
C|88888888-1111111111111111---------------|
G|66666666-9-9-9-9-9-9-9-9--99999999-9/11-|
C|--------------------------99999999-9/11-|
  ******** * * * * * * * *  ******** * *


Last Chorus:

D|-----------------------------------------------------------------|
A|-----------------------------------------------------------------|
F|---------------------------------4--4-4-4-4---4-4---4-4-4-4---4--|
C|-1---1-0-1-1---0-1---1-0-1-1---0-4--4-4-4-4---4-4---4-4-4-4---4--|
G|-1---1-0-1-1---0-1---1-0-1-1---0-2--2-2-2-2---2-2---2-2-2-2---2--|
C|-1---1-0-1-1---0-1---1-0-1-1---0---------------------------------|
                                                                   |x2
D|-----------------------------------------------------------------|  
A|-----------------------------------------------------------------|  
F|-----------------------------------------------------------------|  
C|-1111-11-1111-1111-11-1111-1111-11-1111-15-15-15-15-15-----------|  
G|-8-8--8--8-8--8-8--8--8-8--8-8--8--8-8--11-11-11-11-11-----------|  
C|-8-8--8--8-8--8-8--8--8-8--8-8--8--8-8--11-11-11-11-11-4444-6666-|  
   * *          * *          * *     * *           *  * 
                                         ^
                                        {C}

Coda {C} strum 4 times each:
You can hear it in the song the second time through.
D|----------------|
A|----------------|
F|----------------|
C|-15--16--18--20-|
G|-11--13--14--16-|
C|-11--13--14--16-|

Continued with final chorus:

D|-----------------------------------|   
A|-----------------------------------|   
F|-4444444444444444-6666666666666666-|   
C|-4444444444444444-6666666666666666-|x2 
G|-2222222222222222-4444444444444444-|   
C|-----------------------------------|   

D|-----------------------------------------|
A|-----------------------------------------|
F|-3333333333333333-66666666-8888-10101010-|
C|-3333333333333333-66666666-8888-10101010-|
G|-1111111111111111-44444444-6666-8-8-8-8--|
C|-----------------------------------------|


D|---------------------------------------------------------------|
A|---------------------------------------------------------------|
F|---------------------------------------------------------------|
C|-1-0-1-0-4p3p1-1---0-1-0-4p3p1-0--1-0-1-0-4p3p1-1---0-1-0-2222-|
G|-1-0-1-0-------1---0-1-0-------0--1-0-1-0-------1---0-1-0-2222-|
C|-1-0-1-0-------1---0-1-0-------0--1-0-1-0-------1---0-1-0-2222-|
                                                            ****
Tap to rate this tab
# A B C D E F G H I J K L M N O P Q R S T U V W X Y Z