Guitaretab - guitar tabs
Song name
# A B C D E F G H I J K L M N O P Q R S T U V W X Y Z

Sloth - Broken Crutch tab

=================================================================================

                            Broken Crutch
=================================================================================

By:  Sloth
Album: Dead Generation

Tabbed by: John Moores
mooresjw@email.uc.edu



Drop C Tuning (CGCFAD)

* = Palm Mute
@ = Pinched harmonic
x = muted




Main riff, Intro
0:00

|-------------------------------------------------------|
|-------------------------------------------------------|
|-------------------------------------------------------|
|-----------------6///9-----------------9\\\6-----------| x3
|---2-2-2-2-2-2---6///9---2-2-2-2-2-2---9\\\6-----------|
|---2-2-2-2-2-2-----------2-2-2-2-2-2-------------------|
    * * * * * *           * * * * * *

|-------------------------------------------------------|
|-------------------------------------------------------|
|-------------------------------------------------------|
|-----------------6////9///15---------------------------|
|---2-2-2-2-2-2---6////9///15----Becomes indefinite-----|
|---2-2-2-2-2-2-----------------------------------------|
    * * * * * *

Verse 1
0:13

|-------------------------------------------------------|
|-------------------------------------------------------|
|------Nothing is played during this--------------------|
|--------part of the verse------------------------------|
|-------------------------------------------------------|
|-------------------------------------------------------|

0:25
|-------------------------------------------------------|
|-------------------------------------------------------|
|-------------------------------------------------------|
|-------------------------------------------------------|  x8
|-------------------------------------------------------|
|-----2-2-2-2-2--00-0-0---------------------------------|
      * * * * *  ** * *


Pre-chorus
0:37

|-------------------------------------------------------|
|-------------------------------------------------------|
|-------------------------------------------------------|
|-----------------6///9-----------------9\\\6-----------| x3
|---2-2-2-2-2-2---6///9---2-2-2-2-2-2---9\\\6-----------|
|---2-2-2-2-2-2-----------2-2-2-2-2-2-------------------|
    * * * * * *           * * * * * *

|-------------------------------------------------------|
|-------------------------------------------------------|
|-------------------------------------------------------|
|-----------------6////9///15---------------------------|
|---2-2-2-2-2-2---6////9///15----Becomes indefinite-----|
|---2-2-2-2-2-2-----------------------------------------|
    * * * * * *

Chorus
0:50

|-------------------------------------------------------|
|-------------------------------------------------------|
|-------------------------------------------------------|
|-------------------------------------------------------| x4
|---2-2-2-1--0--0--22222--------------------------------|
|---2-2-2-1--0--0--22222--------------------------------|



Verse 2
1:02

|-------------------------------------------------------|
|-------------------------------------------------------|
|------Nothing is played during this--------------------|
|--------part of the verse------------------------------|
|-------------------------------------------------------|
|-------------------------------------------------------|
[ Tab from: http://www.guitaretab.com/s/sloth/187695.html ]
1:14
|-------------------------------------------------------|
|-------------------------------------------------------|
|-------------------------------------------------------|
|-------------------------------------------------------|  x8
|-------------------------------------------------------|
|-----2-2-2-2-2--00-0-0---------------------------------|
      * * * * *  ** * *


Pre-chorus
1:27

|-------------------------------------------------------|
|-------------------------------------------------------|
|-------------------------------------------------------|
|-----------------6///9-----------------9\\\6-----------| x3
|---2-2-2-2-2-2---6///9---2-2-2-2-2-2---9\\\6-----------|
|---2-2-2-2-2-2-----------2-2-2-2-2-2-------------------|
    * * * * * *           * * * * * *

|-------------------------------------------------------|
|-------------------------------------------------------|
|-------------------------------------------------------|
|-----------------6////9///15---------------------------|
|---2-2-2-2-2-2---6////9///15----Becomes indefinite-----|
|---2-2-2-2-2-2-----------------------------------------|
    * * * * * *

Chorus
1:39

|-------------------------------------------------------|
|-------------------------------------------------------|
|-------------------------------------------------------|
|---------------------------6////9----------------------| x4
|---2-2-2-1--0--0--22222----6////9----------------------|
|---2-2-2-1--0--0--22222--------------------------------|


1:52
|-------------------------------------------------------|
|-------------------------------------------------------|
|-------------------------------------------------------|
|-------------------------------------------------------| x4
|---2-2-2-1--0--0----2-2-2-1--0--0----------------------|
|---2-2-2-1--0--0----2-2-2-1--0--0----------------------|


Bridge
2:04

|-------------------------------------------------------|
|-------------------------------------------------------|
|-------------------------------------------------------|
|---2-2---2-2---2-2---2-2-------------------------------| x4
|---2-2---2-2---2-2---2-2-------------------------------|
|---2-2---2-2---2-2---2-2-------------------------------|


Chorus
3:43

|-------------------------------------------------------|
|-------------------------------------------------------|
|-------------------------------------------------------|
|---------------------------6////9----------------------| x3
|---2-2-2-1--0--0--22222----6////9----------------------|
|---2-2-2-1--0--0--22222--------------------------------|

|-------------------------------------------------------|
|-------------------------------------------------------|
|-------------------------------------------------------|
|-------------------------------------------------------| x3
|---2-2-2-1--0--0----2-2-2-1--0--0----------------------|
|---2-2-2-1--0--0----2-2-2-1--0--0----------------------|

|-------------------------------------------------------|
|-------------------------------------------------------|
|-------------------------------------------------------|
|-------------------------------------------------------|
|---2-2-2-1--0--0----x-x-x-x----------------------------|
|---2-2-2-1--0--0----x-x-x-x----------------------------|

|-------------------------------------------------------|
|-------------------------------------------------------|
|-------------------------------------------------------|
|-------------------------------------------------------| x2
|---2-2-2-1--0--0----2-2-2-1--0--0----------------------|
|---2-2-2-1--0--0----2-2-2-1--0--0----------------------|

4:08
|-------------------------------------------------------|
|-------------------------------------------------------|
|-------------------------------------------------------|
|---2-2---2-2---9\\\\\----2-----------------------------|
|---2-2---2-2---9\\\\\----2-----------------------------|
|---2-2---2-2-------------2-----------------------------|






http://www.myspace.com/slothmusic