Slow Club - Sorry About The Doom tab

-------------------------------------------------------------------------------
			     SORRY ABOUT THE DOOM Ė Slow Club
-------------------------------------------------------------------------------
Tabbed by: ZZ
Email:fatpigeon22@hotmail.co.uk
This is my first ever tabÖ

Tuning: standard

Intro						         Verse 
e|-------2-----------2-----------2-----------2----|-------2-------------------|
B|----3--3--3-----3--3--3-----3--3--3-----3--3--3-|----3--3--3--0--2-----2----|
G|-2--2-----2--2--2-----2--2--2-----2--2--2-----2-|-2--2-----2--------3-------|
D|-0-----------0-----------0-----------0----------|-0-----------0--2-----2----|
A|------------------------------------------------|-------------------4-------|
E|------------------------------------------------|---------------------------|
								
e|-------2-----------2-----------2-----------------------2-----------2-------|
B|----3--3--3-----3--3--3-----3--3--3--0--2-----2-----3--3--3-----3--3--3----|
G|-4--4-----4--4--4-----4--2--2-----2--------3-----4--4-----4--4--4-----4----|
D|-0-----------5-----------0-----------0--2-----2--0-----------5-------------|
A|-------------------------------------------4-------------------------------|
E|---------------------------------------------------------------------------|

e|-------2-----------5-----------------------2-----------2-----------2-------|
B|----3--3--3-----2-----2-----3-----2-----3--3--3-----3--3--3-----3--3--3----|
G|-4--4-----4--2-----------2--2--2-----4--4-----4--4--4-----4--2--2-----2----|
D|-0-----------------2-----0--------2--0-----------5-----------0-------------|
A|-------------0--4-----4--------4-------------------------------------------|
E|---------------------------------------------------------------------------| 

Repeat Verse x1  Chorus x2
e|-------------|-------2-----------2--------0-----0--------5------|
B|----3-----3--|----3--3--3-----3--3--3--0-----0--------2------2--|
G|-2--2--2--2--|-2--2-----2--4--4-----4-----0-----0--2------------|
D|-0-----0-----|-0-----------0-----------2-----2-----------2------|
A|-------------|-------------------------------------0--4------4--|
E|-------------|--------------------------------------------------|

Outro
e|-------2-----2-----------------|
B|----3--3--3--3--3-----3--------|
G|-2--2-----2-----2--2--2--2-----|
D|-0-----------------0-----0-----|
A|-------------------------------|
E|-------------------------------|

Verse 1:
I agree you were right to say weíre doomed, 
Cos there isnít a chance that Iíll get to be in your arms soon.
Cos Iím back on the road now and there is nothing that we can do.
I have to find a way to make the days pass soon. 

Verse 2:
We spend our time looking for which one fits best,
And in the morning I am waking and Iím wondíring how itís me who ended up like this. 
Cos Iím the one who said it would be easy,
now Iím the one whoís feeling worst
Cos I agreed that I would never be put first

Chorus:
And I know your heart is beating slow
And out of time with mine
So now Iíll say goodbye
Tap to rate this tab
 
# A B C D E F G H I J K L M N O P Q R S T U V W X Y Z