Slow Club - Sorry About The Doom tab

Capo I

e|----0-------0-------0-------0-------0----------------0-------0-----------|
B|--1-1-1---1-1-1---1-1-1---1-1-1---1-1-1---0----1---1-1-1---1-1-1---------|
G|--0---0---0---0---0---0---0---0---0---0---0----2---2---2---2---2---------|
D|2-------2-------2-------2-------2-------2----0---2-------3---------------|
A|3-------3-------3-------3-------3-------2----2---0-------0---------------|
E|-------------------------------------------------------------------------|

e|----0----------------0-------0--------0-------3---------------0-------0---|
B|--1-1-1---0----1---1-1-1---1-1-1----1-1-1-----3-----1---0---1-1-1---1-1-1-|
G|--0---0---0----2---2---2---2---2----2---2---0---0---0---0---2---2---2---2-|
D|2-------2----0---2-------3--------3---------0---0-2---0---2-------3-------|
A|3-------2----2---0-------0--------0-------2-------3---2---0-------0-------|
E|------------------------------------------3-------------------------------|

e|----0-------0-------0----------------0-------0---------------------------|
B|--1-1-1---1-1-1---1-1-1---0----1---1-1-1---1-1-1-------------------------|
G|--0---0---0---0---0---0---0----2---2---2---2---2-------------------------|
D|2-------2-------2-------2----0---2-------3-------------------------------|
A|3-------3-------3-------2----2---0-------0-------------------------------|
E|-------------------------------------------------------------------------|

e|----0----------------0-------0--------0-------3---------------0-------0---|
B|--1-1-1---0----1---1-1-1---1-1-1----1-1-1-----3-----1---0---1-1-1---1-1-1-|
G|--0---0---0----2---2---2---2---2----2---2---0---0---0---0---2---2---2---2-|
D|2-------2----0---2-------3--------3---------0---0-2---0---2-------3-------|
A|3-------2----2---0-------0--------0-------2-------3---2---0-------0-------|
E|------------------------------------------3-------------------------------|

e|----0---0-----------0-------0-------1------3-----------------------------|
B|--1-1-1-1-1---1---1-1-1---1-1-1---3-3-3-----3----------------------------|
G|--0---0---0---0---0---0---2---2---2---2---0---0--------------------------|
D|2-----------2---2-------2-------0---------0---0--------------------------|
A|3-----------3---3-------0-------0-------2--------------------------------|
E|----------------------------------------3--------------------------------|

e|----0-------0-------1-------3--------------------------------------------|
B|--1-1-1---1-1-1---3-3-3-----3-------0---0-----1--------------------------|
G|--0---0---2---2---2---2---0---0---1-1-1-1-1---0--------------------------|
D|2-------2-------0---------0---0-2-0---0---0-2---2------------------------|
A|3-------0-------0-------2-------3-----------3---3------------------------|
E|------------------------3------------------------------------------------|
Tap to rate this tab
 
# A B C D E F G H I J K L M N O P Q R S T U V W X Y Z