Slow Club - Thinking Drinking Sinking Feeling tab

Thinking, Drinking, Sinking Feeling  Slow Club
Tabbed by: Clowesy
Email: eleanorclowes@hotmail.com

Tuning: Standard
Capo on 3rd fret

This is my first tab and is done by ear so if you find any mistakes please email 
me. Thanks, and enjoy playing this brilliant song! :)

Intro:
e|---------------------------------------------------------------------------|
B|-0-0-0-0-0-0-0-0-0-0-0-0-0-0-0-0-0-0-0-0-0-0-0-0-0-0-0-0-0-0-0-0-0-0-0-0---|
G|---------------------------------------------------------------------------|
D|---------------------------------------------------------------------------|
A|----------------------------5-3--------------------------5-3---------------|
E|0-0-0-0-0-0-0-0-0-0-0-0-0-0-----5-5-5-5-5-5-3-0-0-0-0-0-0-----5-5-5-5-5----|

e|---------------------------------------------------------------------------|
B|-0-0-0-0-0-0-0-0-----------------------------------------------------------|
G|---------------------------------------------------------------------------|
D|---------------------------------------------------------------------------|
A|---------------------------------------------------------------------------|
E|5-3-0-0-0-0-0-0------------------------------------------------------------|

Verse riff: (Do this 4 times per verse) "Light will pour....bullies the moon"
e|---------------------------------------------------------------------------|
B|-0-0-0-0-0-0-0-0-0-0-0-0-0-0-0---------------------------------------------|
G|---------------------------------------------------------------------------|
D|---------------------------------------------------------------------------|
A|5-3------------------------------------------------------------------------|
E|----5-5-5-5-5-5-3-0-0-0-0-0-0----------------------------------------------|

Chorus:
e|---------0-0-0-0-------------------------0-0-0-0---------------------------|
B|-0-0-0-0---------0-0-0-0-0-0-0-0-0-0-0-0--------0-0-0-0-0-0-0-0-0-0--------|
G|---------------------------------------------------------------------------|
D|5-7-5-3---------5-7-5-3-----------7-5-3--------5-7-5-3---------------------|
A|--------5-5-5-5-------------------------5-5-5-5----------------------------|
E|------------------------0-0-0-0-0----------------------0-0-0-0-0-0---------|

e|---------------------------------------------------------------------------|
B|-0-0-0-0-0-0-0-0-----------------------------------------------------------|
G|---------------------------------------------------------------------------|
D|3-3-3-3--------------------------------------------------------------------|
A|---------------------------------------------------------------------------|
E|--------0-0-0-0------------------------------------------------------------|

Verse
Chorus

Bridge: (Do this riff twice) (1:33 to 1:53 approx.)
e|---------------------------------------------------------------------------|
B|-0-0-0-0-0-0-0-0-0-0-0-0-0-0-0-0-0-0-0-0-0-0-0-0-0-0-0-0-0-0-0-0-----------|
G|---------------------------------------------------------------------------|
D|---------------------------------------------------------------------------|
A|---------------------------------------------------------------------------|
E|0-0-0-0-0-0-0-0-6-6-6-6-6-6-6-6-0-0-0-0-0-0-0-0-3-3-3-3-6-6-6-6------------|
2nd part to bridge: "Thinking, drinking, sinking feeling"
e|---------------------------------------------------------------------------|
B|-0-0-0-0-0-0-0-0-0-0-0-0-0-0-----------------------------------------------|
G|---------------------------------------------------------------------------|
D|5-7-5-3--------------------------------------------------------------------|
A|--------5-3----------------------------------------------------------------|
E|------------5-5-0-0-0-0-0-0------------------------------------------------|

Verse

Extended chorus:(Do this riff 3 times) (2:22 to 2:57)
e|---------0-0-0-0-------------------------0-0-0-0---------------------------|
B|-0-0-0-0---------0-0-0-0-0-0-0-0-0-0-0-0--------0-0-0-0-0-0-0-0-0-0--------|
G|---------------------------------------------------------------------------|
D|5-7-5-3---------5-7-5-3-----------7-5-3--------5-7-5-3---------------------|
A|--------5-5-5-5-------------------------5-5-5-5----------------------------|
E|------------------------0-0-0-0-0----------------------0-0-0-0-0-0---------|

e|---------------------------------------------------------------------------|
B|-0-0-0-0-0-0-0-0-----------------------------------------------------------|
G|---------------------------------------------------------------------------|
D|3-3-3-3--------------------------------------------------------------------|
A|---------------------------------------------------------------------------|
E|--------0-0-0-0------------------------------------------------------------|


Bridge (Except do the riff 3 times instead of 2)
2nd part to bridge
Tap to rate this tab
 
# A B C D E F G H I J K L M N O P Q R S T U V W X Y Z