Song name
# A B C D E F G H I J K L M N O P Q R S T U V W X Y Z

Slow Club - Apples And Pairs tab

This is my first proper tab, so please be lenient.
The verse is very similar to the intro, but the end is slightly different.
I also didn't include the instrumental, it's difficult to replicate without
the other instruments, but the song works well without it, just string the
chorus and verse together as usual.

Capo 5

Intro
e|---3-3---3-3---3-3---3-3---------------2-2---2-2-------------------|
B|---3-3---3-3---3-3---3-3---5-5---5-----3-3---3-3---1-1---1-1---1-1-|
G|---0-0---0-0---0-0---0-0---4-4---4-6---2-2---2-2---0-0---0-0---0-0-|
D|---------------------------5-5---5---0-----0-------2-2---2-2---2-2-|
A|-------------------------------------------------3-----3-----3-----|
E|-3-----3-----2-----2-----0-----0-----------------------------------|

e|---------2-2---2--------|
B|---3-----3-3---3---1----|
G|---0-----2-2---2---0----|
D|---0---0-----0-----2----|
A|-2---3-----------2-3-2-0|
E|------------------------|


Verse X2
e|---3-3---3-3---3-3---3-3---------------2-2---2-2-------------------|
B|---3-3---3-3---3-3---3-3---5-5---5-----3-3---3-3---1-1---1-1---1-1-|
G|---0-0---0-0---0-0---0-0---4-4---4-6---2-2---2-2---0-0---0-0---0-0-|
D|---------------------------5-5---5---0-----0-------2-2---2-2---2-2-|
A|-------------------------------------------------3-----3-----3-----|
E|-3-----3-----2-----2-----0-----0-----------------------------------|

e|---------2-2---2-2-------------|
B|---3-----3-3---3-3---1-1-------|
G|---0-----2-2---2-2---0-0-------|
D|---0---0-----0-------2-2-------|
A|-2---3-------------3-----2-0---|
E|-------------------------------|


Chorus
e|-----2------------------3-3---3-3---3-3---3-3-|
B|-0---3------------1-1---3-3---3-3---3-3---3-3-|
G|-0---2------------0-0---0-0---0-0---0-0---0-0-|
D|-2---0------------2-2-------------------------|
A|----------------3-----------------------------|
E|-0--------------------3-----3-----3-----3-----|

e|----------2-2---2-2---2-2---2-2---------3-3---3-3---3-3---3-3-|
B|---0-0----3-3---3-3---3-3---3-3---1-1---3-3---3-3---3-3---3-3-|
G|---0-0----2-2---2-2---2-2---2-2---0-0---0-0---0-0---0-0---0-0-|
D|---2-2--0-----0-----0-----0-------2-2-------------------------|
A|--------------------------------3-----------------------------|
E|-0------------------------------------3-----3-----3-----3-----|

e|---------------------------------------------|
B|---2-2----2-2----2-2----2-2---1-1---1-1-1----|
G|---2-2----2-2----2-2----2-2---0-0---0-0-0----|
D|---2-2----2-2----2-2----2-2---2-2---2-2-2----|
A|-0------0------0------0-----3-----3-----3-2-0|
E|---------------------------------------------|

At the end, resolve to G (As played at beginning, without the D or A strings, but as a chord)

Lyrics:

Open up both your eyes
Stain my shirt, I dont mind
Pylons buzz right outside
But all I hear is you

Remember when it rained all day
No playtime, locked away
Dancing to the beat of rain
Will it ever stop?


'Cause we are a pair of apples
That wed share after the stretch
But for fifteen minutes or so
We were there


Nervous walks in a park
I never knew could get so dark
Im running out of things to say
Will you please start talking

About yourself or your family
Any friends, Ive got one, two, three
But they are all imaginary
Come and stroke the air


We are a pair of apples
That wed share after the stretch
But for fifteen minutes or so
We were there


Brand new sheets, lets break them in
Underneath our feathered skin
I feel your warmth, you let me in
Shall we stop? Lets stop. [pause]

I look at you, you look away
Its the beginning of the end today
Three more weeks and we could say
We mirrored the world


'Cause we are a pair of apples
That wed share after the stretch
But for fifteen minutes or so
We were there

------------------------------

That's it, enjoy :)
Tap to rate this tab
# A B C D E F G H I J K L M N O P Q R S T U V W X Y Z