Song name
# A B C D E F G H I J K L M N O P Q R S T U V W X Y Z

Slow Club - Beginners chords

Highlighted       Show chord diagrams
                        Slow Club - Beginners


Guitar 1 Intro

e|-------------2------4-----4------------------------------------|
B|-------------4------4-----6------------------------------------|
G|-------------4------4-----6------------------------------------|
D|---8h11------4------6-----6------------------------------------|
A|-------------2------6-----4------------------------------------|
E|-------------x------4-----x------------------------------------|

Guitar 2 Intro
(tremolo pick this)
E|222222222222222222222222222222222222222222222222222211111111111|
B|---------------------------------------------------------------|
G|---------------------------------------------------------------|
D|---------------------------------------------------------------|
A|---------------------------------------------------------------|
E|---------------------------------------------------------------|

F# B G#m C#

F#
And in a moment it all came to this
      B
The time it took for your muscles to grow and grip
             G#m
Of all the things I've heard
                 C#
Why'd it have to be these words?

           F#
And in a second I'll be gone and you won't have to think
         B
I got enough to keep me going, keep me from the brink
    G#m
As your bones grew
              C#
Why did you become you?

Become you?

F#
Oh, I've told you, oh, to be older
     B         G#m
You know I'm right
      C#
I'm right

F#
You know these moments, they take years to pass
               B
You gotta be coping, gotta be hoping the hands fly by fast
      G#m
You call this true
               C#
Why did you become you?

Become you?


Riff 1 (8 times)

e|---------------------------------------------------------------|
B|----11-----9------7-----------7--------------------------------|
G|------------------------8--------------------------------------|
D|---------------------------------------------------------------|
A|---------------------------------------------------------------|
E|---------------------------------------------------------------|

F#
See the sun rise now, this has to end
F#
Don't let it be the one to walk us home again
B                                       G#m
And you know you haven't got all the answers
        B                               G#m
If you did you would be screaming them out
       B                            G#m
And I know I haven't got all the answers,
      B                             G#m
If I did I would be screaming them out, screaming them out

F#
And in a moment it all came to this
              B
The greatest book you ever read came from my favorites list
             G#m
Of all the things to lose,
      C#
it's you I choose.

F#
Oh, I told you, oh, to be older,
     B         G#m
You know I'm right
     C#
I'm right

(Riff 1)

Riff 2 (multiple times)
e|----9/2------------------------------------------------------------|
B|---11/2------------------------------------------------------------|
G|---11/3------------------------------------------------------------|
D|-------------------------------------------------------------------|
A|-------------------------------------------------------------------|
E|-------------------------------------------------------------------|


F#
Keep breathing, keep breathing
F#
Find a scheme you believe in
Tap to rate this tab
 
# A B C D E F G H I J K L M N O P Q R S T U V W X Y Z