Song name
# A B C D E F G H I J K L M N O P Q R S T U V W X Y Z

Slow Club - Everything Is New tab

-------------------------------------------------------------------------------
                          EVERYTHING IS NEW - Slow Club
-------------------------------------------------------------------------------

http://www.youtube.com/watch?v=J58ubY29f_s
Badass song with lots of ghost notes, so this is just an approximation ;)


Capo 1st fret



Riff 1

    E

e|--0-----------0-----------|
B|--0--0----0h2---2---0-----|
G|--1--1--(1)-------1-------|
D|--2--2--------------------|
A|--2-----------------------|
E|--0-----------------------|

Riff 2

    Bm                       A                  E

e|----------2----4--2-----------2-4------4-2----0---|
B|--3-------3---3--(3)-3---5--(2)---2--(2)---2------|
G|--4--4------(2)--------2---------------------2----|
D|--4-----4------------------2-----------2----------|
A|--------------------------------------------------|
E|--------------------------------------------------|

Riff 2*

    Bm                       A               E

e|----------2----4--2--------------4--4-2----0--|
B|--3-------3---3--(3)---5---2------(2)--2------|
G|--4--4------(2)------2-----2--2---------2-----|
D|--4-----4------------------2----2-------------|
A|----------------------------------------------|
E|----------------------------------------------|

Riff 3

e|-------------------------|
B|-x-12\9--9--7--5--2------|
G|-x-11\9--7--6--4--2------|
D|-------------------------|
A|-------------------------|
E|-------------------------|

SOLO

e|--------------------------------------------|
B|--------------------------------------------|
G|--------------------------------------------|
D|--------------------------------------------|
A|--5--7-4---5-4-2p0h2---------9\4--9\2--9\6--|
E|------------------------0-------------------|



INTRO

Riff 1
Riff 2
Riff 1


Bm                           A                             Riff 1
Sat at the lights while they change, on the dashboard I'm shaking
Bm                        A                          Riff 1
I thought of you, and the boy with his head on the table


D                  A                 Riff 1
Everything is new, everything is new

    Bm
And I know my digging
    A                  E  Riff 3
And I know my singing too


    Riff 2*                Riff 1 x2
haa aa    haa aa    haa aa

    Riff 2*                Riff 1 x2
haa aa    haa aa    haa aa


Bm                   A                    Riff 1
Well I knew the girl,  before she was glazed
Bm            A                          Riff 1
Fried in time   from the heat of your gaze
             D                             A
She used to speak for herself (speak for herself)
                            Riff 1
But now she speaks for the name


D                   A                 E
Everything is new, everything is new

Bm             
Well I know my digging
    A                  E Riff 3
And I know my singing too


    Bm        A         E  
Aaa oo    Aaa oo    Aaa oo  \
                               SOLO
    Bm        A         E      on top
Aaa oo    Aaa oo    Aaa oo  /


    Bm                  A            Riff 1
The fruit in the window,  it never decays
      Bm                     A               Riff 1
It was  built to last, it was  bought to stay
       D           A                     Riff 1
By a barefoot girl,  from a different age


D                   A                E
Everything is new, everything is new

Bm             
Well I know my digging
    A                  E Riff 3
And I know my singing too


End with Riff 2
Tap to rate this tab
 
# A B C D E F G H I J K L M N O P Q R S T U V W X Y Z